» » »

Knockin On Heavens Door Tabs (ver.2)

Artists:  A B C D E F G H I J K L M N O P Q R S T U V W X Y Z # 

Knockin On Heavens Door Tabs (ver.2)

Bob Dylan
Rating:
0/5 (0 votes)

Hard to play? Try these video lessons and learn fast.
                G      D   Am
e-------3---2---0---
B------3----3---1---
G-----0-----2---2---
D----0------0---2---
A---2-------0---0---
E--3--------0---0---

     G      D   C 
e-------3---2---0---
B------3----3---1---
G-----0-----2---2---
D----0------0---0---
A---2-------0---3---
E--3--------0---3---


You can figure out the strummng pattern its not very hard just listen to the sound

You can also add finger picking in the beginning to make it sound coolor if you want and thats it .. not very hard
            
Hard to play? Try these video lessons and learn fast. | Correct




comments powered by Disqus
↑ Back to top | Tablatures and chords are parodies/interpretations of the original songs. You may use it for private study, scholarship, research or language learning purposes only