» » »

Bob Dylan, It Takes A Lot To Laugh Tabs (ver.1)

Artists:  A B C D E F G H I J K L M N O P Q R S T U V W X Y Z # 

It Takes A Lot To Laugh Tabs (ver.1)

Bob Dylan Tabs
 Rating:
4/5 (4 votes)
It Takes A Lot To Laugh lessons Tabs too difficult? Try these video lessons and learn fast
                It Takes A Lot To Laugh, It Takes A Train To Cry
Bob Dylan


Capo 1st Fret

Intro

|----------3--3----------3--3----|----------3--3----------3--3----|
|------0-0h1--0------0---1--0----|------0-0h1--0------0---1--0----|
|------0-0----0------0---0--0----|------0-0----0------0---0--0----|
|--0---0-0h2--0--0---0---2--0--0-|--0---0-0h2--0--0---0---2--0--0-|
|0-2---2------2--2---2------2--2-|--2---2------2--2---2------2--2-|
|0-3---3---------3---3---------3-|--3---3---------3---3---------3-|

|----------3--3----------3--3----|----------3--3----------3--3----|
|------0-0h1--0------0---1--0----|------0-0h1--0------0---1--0----|
|------0-0----0------0---0--0----|------0-0----0------0---0--0----|
|--0---0-0h2--0--0---0---2--0--0-|--0---0-0h2--0--0---0---2--0--0-|
|--2---2------2--2---2------2--2-|--2---2------2--2---2------2--2-|
|--3---3---------3---3---------3-|--3---3---------3---3---------3-|
                                                          

Verses

|----------3--3----------3--3----|--------------------------------|
|------0-0h1--0------0---1--0----|------3--3--3----2----2----1----|
|------0-0----0------0---0--0----|------4--4--4----3----3----2----|
|--0---0-0h2--0--0---0---2--0--0-|-0----0--0--0----0----0----0----|
|0-2---2------2--2---2------2--2-|-2------------------------------|
|0-3---3---------3---3---------3-|-3------------------------------|

|----------3--3----------3--3----|----------3--3----------3--3----|
|------0-0h1--0------0---1--0----|------0-0h1--0------0---1--0----|
|------0-0----0------0---0--0----|------0-0----0------0---0--0----|
|--0---0-0h2--0--0---0---2--0--0-|--0---0-0h2--0--0---0---2--0--0-|
|0-2---2------2--2---2------2--2-|--2---2------2--2---2------2--2-|
|0-3---3---------3---3---------3-|--3---3---------3---3---------3-|

|----------3--3----------3--3----|--------------------------------|
|------0-0h1--0------0---1--0----|------3--3--3----2----2----1----|
|------0-0----0------0---0--0----|------4--4--4----3----3----2----|
|--0---0-0h2--0--0---0---2--0--0-|-0----0--0--0----0----0----0----|
|0-2---2------2--2---2------2--2-|-2------------------------------|
|0-3---3---------3---3---------3-|-3------------------------------|

|----------3--3----------3--3----|----------3--3----------3--3----|
|------0-0h1--0------0---1--0----|------0-0h1--0------0---1--0----|
|------0-0----0------0---0--0----|------0-0----0------0---0--0----|
|--0---0-0h2--0--0---0---2--0--0-|--0---0-0h2--0--0---0---2--0--0-|
|0-2---2------2--2---2------2--2-|--2---2------2--2---2------2--2-|
|0-3---3---------3---3---------3-|--3---3---------3---3---------3-|

|--3--3--3----3--3--3----0--0--0-|-2---2--2--2--2--3---3--3--3--3-|
|--0--0--0----0--0--0----1--1--1-|-3---3--3--3--3--3---3--3--3--3-|
|--0--0--0----0--0--0----0--0--0-|-2---2--2--2--2--4---4--4--4--4-|
|--0--0--0----0--0--0----2--2--2-|-0---0--0--0--0--0---0--0--0--0-|
|--2--2--2----2--2--2----3--3--3-|--------------------------------|
|--3--3--3----1--1--1----0--0--0-|--------------------------------|

|-5---5--5--5--5--5---5--5--5--5-|----------3--3----------3--3----|
|-3---3--3--3--3--3---3--3--3--3-|------0-0h1--0------0---1--0----|
|-5---5--5--5--5--5---5--5--5--5-|------0-0----0------0---0--0----|
|-0---0--0--0--0--0---0--0--0--0-|--0---0-0h2--0--0---0---2--0--0-|
|--------------------------------|0-2---2------2--2---2------2--2-|
|--------------------------------|0-3---3---------3---3---------3-|

|--------------------------------|----------3--3----------3--3----|
|------3--3--3----2----2----1----|------0-0h1--0------0---1--0----|
|------4--4--4----3----3----2----|------0-0----0------0---0--0----|
|-0----0--0--0----0----0----0----|--0---0-0h2--0--0---0---2--0--0-|
|-2------------------------------|0-2---2------2--2---2------2--2-|
|-3------------------------------|0-3---3---------3---3---------3-|
                                        
|----------3--3----------3--3----|
|------0-0h1--0------0---1--0----|
|------0-0----0------0---0--0----| (Repeat starting from Verse)
|--0---0-0h2--0--0---0---2--0--0-|
|0-2---2------2--2---2------2--2-|
|0-3---3---------3---3---------3-|


Well, I ride on a mailtrain, baby,
Can't buy a thrill.
Well, I've been up all night, baby,
Leanin' on the window sill.
Well, if I die
On top of the hill
And if I don't make it,
You know my baby will.

Don't the moon look good, mama,
Shinin' through the trees?
Don't the brakeman look good, mama,
Flagging down the "Double E"?
Don't the sun look good
Goin' down over the sea?
Don't my gal look fine
When she's comin' after me?

Now the wintertime is coming,
The windows are filled with frost.
I went to tell everybody,
But I could not get across.
Well, I wanna be your lover, baby,
I don't wanna be your boss.
Don't say I never warned you
When your train gets lost.
            
Submit corrections

comments powered by Disqus
↑ Back to top | Bob Dylan Tabs for It Takes A Lot To Laugh. Lyrics for acoustic guitar and electric guitar. Tablatures and chords are parodies/interpretations of the original songs. You may use it for private study, scholarship, research or language learning purposes only