» » »

Bob Dylan, Cuckoo Is A Pretty Bird Tabs (ver.1)

Artists:  A B C D E F G H I J K L M N O P Q R S T U V W X Y Z # 

Cuckoo Is A Pretty Bird Tabs (ver.1)

Bob Dylan Tabs
Rating:
0/5 (0 votes)
Cuckoo Is A Pretty Bird lessons Tabs too difficult? Try these video lessons and learn fast
                



D
   :   .   .   .     :   .   .   .     :   .   .   .     :   .   .   .
|--2---2-2-2-2-----|-----------------|-----------------|-----------------|
|*-3---3-3-3-3-----|-----------------|-----------------|-----------------|
|--2---2-2-2-2-----|-----------------|-----------------|-----------------|
|--0---0-0-0-0-----|-0---------------|-----------------|-0---------------|
|*-0-----------3---|-----------------|-------------3---|-----------------|
|--0---------------|-----------------|-----------------|-----------------|

 _______________________________________________________________________
| 1.                                                                    |
  F                         /c        D
  :   .   .   .     :   .   .   .     :   .   .   .     :   .   .   .
|(1)--------------|-----------------|-----------------|-----------------||
|-1---------------|---------1-------|-----------------|----------------*||
|-2---------------|---------2-------|-----------------|-----------------||
|-3---------------|-----------------|-0---------------|-0---------------||
|-----------------|---------3-------|-------------3---|----------------*||
|-----------------|-----------------|-----------------|-----------------||

 _____________________________________________________
|2.
  F                 /c      F         D   
  :   .   .   .     :   .   .   .     :   .   .   .     :   .   .   .
|(1)--------------|-----------------|-----------------|-----------------|
|-1---------------|-1-------1-------|-----------------|-----------------|
|-2---------------|-2-------2-------|-----------------|-----------------|
|-3---------------|---------3-------|-0---------------|-0-------3-------|
|-----------------|-3---------------|-------------3---|-----------------|
|-----------------|-----------------|-----------------|-----------------|

                            
  :   .   .   .     :   .   .   .     :   .   .   .     :   .   .   .
|-----------------|-----------------|-----------------|-----------------|
|-----------------|-----------------|-----------------|-----------------|
|-----------------|-----------------|-----------------|-----------------|
|-3---0-----------|---------3-------|-3---0-----------|---------0-------|
|-----------------|-----------------|-----------------|-----------------|
|-------------3---|-0---------------|-------------3---|-0---------------|

  F                                   D
  :   .   .   .     :   .   .   .     :   .   .   .     :   .   .   .
|-----------------|-----------------|-2---------------|-----------------|
|-1---------------|-1-------1-------|-3---------------|-----------------|
|-2---------------|-2-------2-------|-2---------------|-----------------|
|-3---------------|---------3-------|-0---------------|-0---------------|
|-----------------|-3---------------|-0-----------3---|-----------------|
|-----------------|-----------------|-0---------------|-----------------|

        D     /c D                  /c D
Oh, the cuckoo     is a pretty bird 
        F              D
An' she warbles as she flies 
        D    /c D               /c D
But she never     sings "Cuckoo" 
          F               D
'till the fourth day 'n July
            

comments powered by Disqus
↑ Back to top | Bob Dylan Tabs for Cuckoo Is A Pretty Bird. Lyrics for acoustic guitar and electric guitar. Tablatures and chords are parodies/interpretations of the original songs. You may use it for private study, scholarship, research or language learning purposes only