>
 >
Blowin In The Wind 1

Blowin In The Wind 1 Guitar Tabs

Bob Dylan - Blowin In The Wind 1 chords, tabs, tablatures, lyrics

Guitar lessons | Add/correct | Request | Top 50 tabs Artists:  A B C D E F G H I J K L M N O P Q R S T U V W X Y Z 0-9

Blowin In The Wind 1 Guitar Tabs – Bob Dylan

CD, Sheet music, Poster

Do you like Blowin In The Wind 1? Share with your friends now
ChordsTabs
Blowin in the wind Bob Dylan
CAPO 7TH FRET 
I hope you like it. Enjoy!
For Elsa, Stan, Quentin, Biloute


|--------------|-------------|---2-----2--|--------------|
|----0----0----|----1----2---|---3------3-|----0---------|
|----0-----0---|----0----0---|---2--2-----|----0----0----|
|----0---------|----2----0---|------------|----0------0--|
|--------------|--3----2-----|-0----------|--------------|
|--3----3------|-------------|------------|--3----3------|
   How many    roads must a   man     walk    down

|--------------|-------------|--------------|--------------|
|----0----0----|----1----2---|----0----0----|----0----0----|
|----0-----0---|----0-----0--|----0-----0---|----0-----0---|
|----0---------|----2--------|----0---------|----0---------|
|--------------|--3----2-----|--------------|--------------|
|--3----3------|-------------|--3----3------|0h3----3------|
 Before     you   call him  a   man 

|--------------|-------------|---2-----2--|--------------|
|----0----0----|----1----2---|---3------3-|----0---------|
|----0-----0---|----0----0---|---2--2-----|----0----0----|
|----0---------|----2----0---|------------|----0------0--|
|--------------|--3----2-----|-0----------|--------------|
|--3----3------|-------------|------------|--3----3------|
   How many      seas must the white dove    sail


|--------------|-------------|--------------|--------------|
|----0----0----|----1----2---|----0----0----|----0----0----|
|----0-----0---|----0-----0--|----0-----0---|----0-----0---|
|----0---------|----2--------|----0---------|----0---------|
|--------------|--3----2-----|--------------|--------------|
|--3----3------|-------------|--3----3------|0h3----3------|
 Before  she     sleeps in the  sand

|--------------|-------------|---2-----2--|--------------|
|----0----0----|----1----2---|---3------3-|----0---------|
|----0-----0---|----0----0---|---2--2-----|----0----0----|
|----0---------|----2----0---|------------|----0------0--|
|--------------|--3----2-----|-0----------|--------------|
|--3----3------|-------------|------------|--3----3------|
  How    many  times must the  cannonballs   fly


|--------------|-------------|--------------|--------------|
|----0----0----|----1----2---|----0----0----|----0----0----|
|----0-----0---|----0-----0--|----0-----0---|----0-----0---|
|----0---------|----2--------|----0---------|----0---------|
|--------------|--3----2-----|--------------|--------------|
|--3----3------|-------------|--3----3------|0h3----3------|
 Before they're   forever       banned
                                     
|-------------|---2----2---|--------------|---------------|
|----1----2---|---3-----3--|----0----0----|----1-----1----|
|----0----0---|---2--2-----|----0-----0---|----0------0---|
|----2----0---|------------|----0---------|----2----------|
|--3----2-----|-0----------|--------------|--3------------|
|-------------|------------|--3----3------|-------3-------|
 The answer my   friend     is blowin in the wind


|-------------|---2----2---|---------------|
|----1----2---|---3-----3--|----0----------|
|----0----0---|---2--------|----0-----0----|
|----2----0---|------------|----0-------0--|
|--3----2-----|-0----0-----|---------------|
|-------------|------------|--3----3-------|
 The answer is  blowin in the wind

How many years can a mountain exist
Before it's washed to the sea?
Yes, 'n' how many years can some people exist
Before they're allowed to be free?
Yes, 'n' how many times can a man turn his head,
Pretending he just doesn't see?
The answer, my friend, is blowin' in the wind,
The answer is blowin' in the wind.


How many times must a man look up
Before he can see the sky?
Yes, 'n' how many ears must one man have
Before he can hear people cry?
Yes, 'n' how many deaths will it take till he knows
That too many people have died?
The answer, my friend, is blowin' in the wind,
The answer is blowin' in the wind





Comments


Popular Bob Dylan tabs & chords
Bob Dylans Dream Chords
Chimes Of Freedom Chords
Every Grain Of Sand Chords
Jet Pilot Chords
Mr Tambourine Man Chords
Neighbourhood Bully Chords
The Times They Are A-changin 5 Chords
Masters Of War Tabs
North Country Blues Tabs
Senor Tabs


Song lyrics



↑ Back to top | Tablatures and chords are parodies/interpretations of the original songs. You may use it for private study, scholarship, research or language learning purposes only
© 2014 AZChords.com Contact us | Privacy policy | DMCA | Add/correct tabs | Request tabs | Top 50 tabs