» » »

Beyond Here Lies Nothin Tabs (ver.1)

Artists:  A B C D E F G H I J K L M N O P Q R S T U V W X Y Z # 

Beyond Here Lies Nothin Tabs (ver.1)

Bob Dylan
Rating:
0/5 (0 votes)

Hard to play? Try these video lessons and learn fast.
                This is a version I do, solo on guitar, with the horn parts incorporated.

Intro:

Am
------3h5-3h5-------|
-1-1--3h5-3h5--1-1--|
-2-2-----------2-2--|
-2-2-----------2-2--|
--------------------|
--------------------| x2

Dm
-1-1--3h5-3h5--1-1-|
-3-3--3h5-3h5--3-3-|
-2-2-----------2-2-|
-------------------|
-------------------|
-------------------|

Am
------3h5-3h5------|
-1-1--3h5-3h5--1-1-|
-2-2-----------2-2-|
-2-2-----------2-2-|
-------------------|
-------------------|

E
------3h5-3h5------|
------3h5-3h5------|
-1-1-----------1-1-|
-2-2-----------2-2-|
-2-2-----------2-2-|
-------------------|

Am
------3h5-3h5------|
-1-1--3h5-3h5--1-1-|
-2-2-----------2-2-|
-2-2-----------2-2-|
-------------------|
-------------------|


Am
Oh, well, I love you pretty baby;
You’re the only love I’ve ever known.
Am                                  Dm
Just as long as you stay with me,
Dm                               Am
The whole world is my throne.

Am                      E
Beyond here lies nothin’…
E                                      Am
Nothin’ we can call our own.

Well I’m moving after midnight
Down boulevards of broken cars.
Don’t know what I’d do without her,
Without this love that we call ours.

Beyond here lies nothin’…
Nothing but the moon and stars.

(SOLO)

Down every street there’s a window,
And every window’s made of glass.
We’ll keep on lovin’ pretty baby,
For as long as love will last.

Beyond here lies nothin’…
But the mountains of the past.

(SOLO) x2

Well my ship is in harbor,
And the sails are spread.
Listen to me, pretty baby:
Lay your hand upon my head.

Beyond here lies nothin’…
Nothin’ done and nothin’ said.

Am
            
Hard to play? Try these video lessons and learn fast. | Correct




comments powered by Disqus
↑ Back to top | Tablatures and chords are parodies/interpretations of the original songs. You may use it for private study, scholarship, research or language learning purposes only