» » »

Baby Let Me Follow You Down Bass tabs (ver.1)

Artists:  A B C D E F G H I J K L M N O P Q R S T U V W X Y Z # 

Baby Let Me Follow You Down Bass tabs (ver.1)

Bob Dylan
Rating:
0/5 (0 votes)

Hard to play? Try these video lessons and learn fast.
                Baby Let Me Follow You Down 
Bob Dylan and The Band
The Last Waltz
Bass Player: Rick Danko

Just listen to the song over and over and you'll get it eventually

Intro 
G|---------|
D|-3-3-2-2-|
A|---------|
E|---------|

Verse
G|-----------|-----------|-----------|
D|--5-5-3-5--|----3--3-3-|-2-2-------|
A|-----------|-3-5-------|-----------|
E|-----------|-----------|-----------|

Pre-Chorus
G|------------------------|
D|-----------------1--1-1-|
A|----------3--3-3--------|
E|-3--3-3-3---------------|

Chorus
G|----------------------------|
D|-5-5------------------------|
A|-----5-5-3-3-5-5-3-3-5-5----|
E|----------------------------|

Thats it, have fun...
            
Hard to play? Try these video lessons and learn fast. | Correct




comments powered by Disqus
↑ Back to top | Tablatures and chords are parodies/interpretations of the original songs. You may use it for private study, scholarship, research or language learning purposes only