» » »

Bobby Goldsboro, Little Things Chords (ver.1)

Artists:  A B C D E F G H I J K L M N O P Q R S T U V W X Y Z # 

Little Things Chords (ver.1)

Bobby Goldsboro Tabs
Rating:
0/5 (0 votes)
Little Things lessons Tabs too difficult? Try these video lessons and learn fast
                Little Things:Bobby Goldsboro.
#13 in 1964. (Dave Berry had a #1 hit with it
in the UK in 1965.
(Goldsboro started out playing guitar for Roy Orbison.)

INTRO/RIFF: (x4)
-------------------------------------------|
-------------------------------------------|
-----0-------0--------0---------0----------|
--2------1-2------1-2-------1-2------------|
-------2--------2--------2-----------------|
-------------------------------------------|

#1.
       E               C#7         F#          B
Little things that you do, make me glad I'm in love with you,
       E               C#7         F#          B
little things that you say make me glad that I feel this way.
            A                           E
The way you smile...the way you hold my hand,
             A                        B
and when I'm down, you'll always understand.
B7
You know I love those...

#2.
       E            C#7          F#               B
Little things in my ear that you say when there's no one near,
       E               C#7       F#             B
little things that you do let me know that your love is true.
        A                         E
When we walk, you like to hold my hand,
            A                          B
and when we talk, you tell me I'm your man.

CHORUS:
B7                           G             Em
You know I love those little things that I hear,
           G                        Em
the little things you whisper in my ear.
             G                      D
I know there ain't nobody else like you,
             G                        D   B
no one could do the little things you do..ooo.

RIFF:
-------------------------------------------|
-------------------------------------------|
-----0-------0--------0---------0----------|
--2------1-2------1-2-------1-2------------|
-------2--------2--------2-----------------|
-------------------------------------------|

#3.
       E               C#7         F#          B
Little things that you do, make me glad I'm in love with you,
       E               C#7         F#          B
little things that you say make me glad that I feel this way.
        A                         E
When we walk, you like to hold my hand,
            A                          B
and when we talk, you tell me I'm your man.

CHORUS:
B7                           G             Em
You know I love those little things that I hear,
           G                        Em
the little things you whisper in my ear.
             G                      D
I know there ain't nobody else like you,
             G                        D   B
no one could do the little things you do..ooo.

OUTRO:RIFF:
-------------------------------------------|
-------------------------------------------|
-----0-------0--------0--------------------|
--2------1-2------1-2-------1-2-(end)------|
-------2--------2--------2-----------------|
-------------------------------------------|


A sixties smash from Kraziekhat.
            

comments powered by Disqus
↑ Back to top | Bobby Goldsboro Chords for Little Things. Lyrics for acoustic guitar and electric guitar. Tablatures and chords are parodies/interpretations of the original songs. You may use it for private study, scholarship, research or language learning purposes only