» » »

Jets Tabs (ver.3)

Artists:  A B C D E F G H I J K L M N O P Q R S T U V W X Y Z # 

Jets Tabs (ver.3)

Blur
Rating:
0/5 (0 votes)

Hard to play? Try these video lessons and learn fast.
                Album - Think Tank
Song - Jets
Track - 11

E |----------------------------------------------|
B |----------------------------------------------|
G |-----16---12----12--------16-16---12-----12---|
D |-------------14-----14---------------14-----14|
A |----------------------------------------------|
E |----------------------------------------------|

E |------------------------------------------|
B |------------------------------------------|
G |----16-16-16-16-11---16-16-16-14-12-------|
D |--------------------------------------14--|
A |------------------------------------------|
E |------------------------------------------|

The other option for any acoustic players with not much access to higher frets is to drop all of it 12 frets down.
            
Hard to play? Try these video lessons and learn fast. | Correct




comments powered by Disqus
↑ Back to top | Tablatures and chords are parodies/interpretations of the original songs. You may use it for private study, scholarship, research or language learning purposes only