» » »

Blur, Good Song Tabs (ver.2)

Artists:  A B C D E F G H I J K L M N O P Q R S T U V W X Y Z # 

Good Song Tabs (ver.2)

Blur Tabs
Rating:
0/5 (0 votes)
Good Song lessons Tabs too difficult? Try these video lessons and learn fast
                Guit.1 
Main Riff
e|--8-00-5-----3----3----5-----5-4-------|
B|---------3-5---3----55---3-5-----------|
G|---------------------------------------|
D|---------------------------------------|
A|---------------------------------------|
E|---------------------------------------|

Guit.2
Main Riff
e|---------------------------------|
B|---------------------------------|
G|---------------------------------|
D|--2/5------------0-2/5-----------|  
A|---------------------------------| 
E|---------------------------------|

Bridge
e|-8-88--3-555-88---|
B|------------------|
G|------------------|
D|------------------|    
A|------------------|
E|------------------|
            
Submit corrections

comments powered by Disqus
↑ Back to top | Blur Tabs for Good Song. Lyrics for acoustic guitar and electric guitar. Tablatures and chords are parodies/interpretations of the original songs. You may use it for private study, scholarship, research or language learning purposes only