» » »

Gene By Gene Tabs (ver.1)

Artists:  A B C D E F G H I J K L M N O P Q R S T U V W X Y Z # 

Gene By Gene Tabs (ver.1)

Blur
Rating:
0/5 (0 votes)

Hard to play? Try these video lessons and learn fast.
                
e/----------------------------
B/----------------------------
G/---------------------------- Intro
D/-------------7--------------  (Guitar I)
A/--8-10-10-10---8-10-10-10---
E/----------------------------

e/--10^----8----10^----8------ High Part (Guitar II)
B/----------------------------
G/---------------------------- 
D/----------------------------
A/----------------------------
E/--10-----8----10-----8------ Low Part (Guitar I)

e/--3--0----------------------
B/-------1------1-1-----------
G/---------0--3--------------- Guitar I 
D/----------------------------
A/----------------------------
E/----------------------------

I've seen another tab of this song that looks a little more complicated than mine but what I have
here I think is correct. There are lots of fill-ins of all the different parts at times so you can easily
figure out when to play them by listening to the song.
            
Hard to play? Try these video lessons and learn fast. | Correct




comments powered by Disqus
↑ Back to top | Tablatures and chords are parodies/interpretations of the original songs. You may use it for private study, scholarship, research or language learning purposes only