» » »

Crazy Beat Tabs (ver.3)

Artists:  A B C D E F G H I J K L M N O P Q R S T U V W X Y Z # 

Crazy Beat Tabs (ver.3)

Blur
Rating:
0/5 (0 votes)

Hard to play? Try these video lessons and learn fast.
                Band-Blur 
Song title-Crazy beat 
Album-Think tank
Tuning-Standard

--------------------------------------
--------------------------------------
--------------------------------------
--8-8--7--7-6-5-5-5-5-----------------
--8-8--7--7-6-5-5-5-5-----------------
--6-6--5--5-4-3-3-3-3-----------------      x 3


--------------------------------------
--------------------------------------
--------------------------------------
--3-3-3-3-3-3-3-3-3-3-3-3-3-3---8-----
--3-3-3-3-3-3-3-3-3-3-3-3-3-3---8-----
--1-1-1-1-1-1-1-1-1-1-1-1-1-1---6-----


I think you play it 14 times but I’m not sure, you 
Play it fast though.



    
--------------------------------------
--------------------------------------
--------------------------------------
--8-8--7--7-6-5-5-5-5-----------------
--8-8--7--7-6-5-5-5-5-----------------
--6-6--5--5-4-3-3-3-3-----------------       x 3

--------------------------------------
--------------------------------------
--------------------------------------
--3-3-3-3-3-3-3-3-3-3-3-3-3-3---8-----
--3-3-3-3-3-3-3-3-3-3-3-3-3-3---8-----
--1-1-1-1-1-1-1-1-1-1-1-1-1-1---6-----

This is the part when all other instruments stop and
You strum the main riff 3 times and then after you have 
Played this:

--------------------------------------
--------------------------------------
--------------------------------------
--3-3-3-3-3-3-3-3-3-3-3-3-3-3---8-----
--3-3-3-3-3-3-3-3-3-3-3-3-3-3---8-----
--1-1-1-1-1-1-1-1-1-1-1-1-1-1---6-----	     
  
the drums and bass come back in


--------------------------------------
--------------------------------------
--------------------------------------
--8-8--7--7-6-5-5-5-5-----------------
--8-8--7--7-6-5-5-5-5-----------------
--6-6--5--5-4-3-3-3-3-----------------       x 3


--------------------------------------
--------------------------------------
--------------------------------------
--3-3-3-3-3-3-3-3-3-3-3-3-3-3---8-----
--3-3-3-3-3-3-3-3-3-3-3-3-3-3---8-----
--1-1-1-1-1-1-1-1-1-1-1-1-1-1---6-----
            
Hard to play? Try these video lessons and learn fast. | Correct




comments powered by Disqus
↑ Back to top | Tablatures and chords are parodies/interpretations of the original songs. You may use it for private study, scholarship, research or language learning purposes only