» » »

Country House Bass tabs (ver.1)

Artists:  A B C D E F G H I J K L M N O P Q R S T U V W X Y Z # 

Country House Bass tabs (ver.1)

Blur
Rating:
4/5 (3 votes)

Hard to play? Try these video lessons and learn fast.
                Title : Country House
Artist : Blur
Album : The Great Escape
(vica chile mierda!!)
============================================================================

intro:
G-----------------------------------------------------------|
D-1212-111-1010-99-88-77-66-55------------------------------|
A-----------------------------------------------------------|
E-----------------------------------------------------------|

Verse:
(City dweller, successful fella...)
G--------------------------------------------------------------|
D------------------------------------1212-11-1010-99-88-77-66--|
A--------------------------------------------------------------|
E-00-0202-2/55-0505-2/1010-2/99-2/7----------------------------|

pre chorus
(It preys on him, he's getting thin)
G----------------------------------------------------------------|
D----------------------------------------------------------------|
A----------------------------------------------------------------|
E--12-12-12-12-1212-1111-1010-99-88-77-66------------------------|

Chorus
(He lives in a house, a very big house in the country)
G---------------------99-88--------------------------------------------|
D---77----77------99------------77----77-------------------------------|
A------------77--------------55----55----------------------------------|
E-55---55--------------------------------55----------------------------|

(He's got morning glory...)
G--------------------------------------------------------------|
D------------------------------------1212-11-1010-99-88-77-66--|
A--------------------------------------------------------------|
E-00-0202-2/55-0505-2/1010-2/99-2/7----------------------------|

(For the faint at heart, a new start!)
G----------------------------------------------------------------|
D----------------------------------------------------------------|
A----------------------------------------------------------------|
E--12-12-12-12-1212-1111-1010-99-88-77-66------------------------|

Chorus
(He lives in a house, a very big house in the country)
G----------------------99-88----------------------------------------------|
D----77----77------99-------------77----77--------------------------------|
A-------------77--------------55-----55-----------------------------------|
E-055---55--------------------------------55------------------------------|


>in the Guitar solo...

G--------------------------------------------------------------|
D------------------------------------1212-11-1010-99-88-77-66--|
A--------------------------------------------------------------|
E-00-0202-2/55-0505-2/1010-2/99-2/7----------------------------|


ending
G----------------------99-88----------------------------------------------|
D----77----77------99-------------77----77--------------------------------|
A-------------77--------------55-----55-----------------------------------|
E-055---55--------------------------------55------------------------------|
            
Hard to play? Try these video lessons and learn fast. | Correct




comments powered by Disqus
↑ Back to top | Tablatures and chords are parodies/interpretations of the original songs. You may use it for private study, scholarship, research or language learning purposes only