>
 >
Country House

Country House Bass Tabs

Blur - Country House chords, tabs, tablatures, lyrics

Guitar lessons | Add/correct | Request | Top 50 tabs Artists:  A B C D E F G H I J K L M N O P Q R S T U V W X Y Z 0-9

Country House Bass Tabs – Blur

CD, Sheet music, Poster

Do you like Country House? Share with your friends now
Bass TabsBass Tabs v2ChordsChords v2Chords v3TabsUkulele
================================================================================
         Title : Country House
        Artist : Blur
         Album : The Great Escape
================================================================================

Legend
------

 h  = hammer-on
 p  = pull-off
 b  = bend
 r  = bend release
 /  = slide up/down
<5> = natural harmonic
[5] = artifical harmonic
 ~  = vibrato
 tr = trill





G--|--|--|-6-6-5-5-4-4-3-3-2-2-1-1-0-------|----------|---------|-------
D--|--|--|---------------------------4-5-3-|----------|---------|-0-0---
A--|--|--|---------------------------------|-0--0-----|-2-2-2-2-|-----4-
E--|--|--|---------------------------------|------0-0-|---------|-------





G|---|----6-6-5-5-4-4-3-3-2-2-1-1-0-0-|----------|---------|---------|-
D|---|--------------------------------|----------|---------|-0-0-----|-
A|-4-|-4------------------------------|-0--0-----|-2-2-2-2-|-----4-4-|-
E|---|--------------------------------|------0-0-|---------|---------|-





G|----6-6-5-5-4-4-3-3--2-1-1-0-0-|----------|---------|---------|----6-
D|-------------------------------|----------|---------|-0-0-----|------
A|-4-----------------------------|-0--0-----|-2-2-2-2-|-----4-4-|-4----
E|-------------------------------|------0-0-|---------|---------|------





G|-6-5-5-4-4-----|---------|--------------------|-------------1-4-|-7-4-
D|-----------2---|---------|-2-0---0-2--------2-|-----0-2-2-2-----|-----
A|---------------|---------|-----4-----0--0-4---|-0-4-------------|-----
E|-------------0-|-0-0-0-0-|--------------------|-----------------|-----





G|-----5-2--|------5-2----------|-2------------|-------------1-4-|-7-4-
D|-0-0------|-0--0------------2-|---2--------2-|-----0-2-2-2-----|-----
A|----------|----------0--0-4---|-----0--0-4---|-0-4-------------|-----
E|----------|-------------------|--------------|-----------------|-----





G|-----5-2--|----------|-2-1------|---------|---------|--------6-6-5-5-
D|-0-0------|--------2-|----------|---------|-----0-0-|----------------
A|----------|-0--0-4---|-----0--0-|-----2-2-|-2-2-----|-4-4-4----------
E|----------|----------|----------|-0-0-----|---------|----------------





G|-4-4-|-3-3--2-1-1-0-0------|---------|---------|--------6-6-5-5-4-4-|-
D|-----|---------------------|---------|-----0-0-|--------------------|-
A|-----|----------------0--0-|-----2-2-|-2-2-----|-4-4-4--------------|-
E|-----|---------------------|-0-0-----|---------|--------------------|-





G|---------|---------------|------------------|-----1-4-7-4-|-----5-2--
D|-2-------|-----2-0---0-2-|--------2-----0-2-|-2-2---------|-0-0------
A|---------|---------4-----|-0--0-4---0-4-----|-------------|----------
E|---0-0-0-|-0-0-----------|------------------|-------------|----------





G|------5-2-|----------2---|----------------------1-4-7-4-|-----5-2----
D|-0--0-----|--------2---2-|--------2-----0-2-2-2---------|-0-0------0-
A|----------|-0--0-4-------|-0--0-4---0-4-----------------|------------
E|----------|--------------|------------------------------|------------





G|----5-2-|--------------|---------|-------------|--------------|-------
D|--0-----|--------2-----|---------|-------------|-------2------|-------
A|--------|-0--0-4-------|---------|-------------|---------0--0-|-----2-
E|--------|----------0-0-|-0-0-0-0-|-0-0-0-0-0-0-|-0-0-0--------|-0-0---





G|---|---------|--------6-6-5-5-4-4-|-3-3-2-2-1-1-0-0------|---------|-
D|---|-----0-0-|--------------------|----------------------|---------|-
A|-2-|-2-2-----|-4-4-4--------------|-----------------0--0-|-----2-2-|-
E|---|---------|--------------------|----------------------|-0-0-----|-





G|---------|--------6-6-5-5-4-4-|-3-3-2-2-1-1-0-0---|---|-----|--|--|--
D|-----0-0-|--------------------|-------------------|---|-----|--|--|--
A|-2-2-----|-4-4-4--------------|-----------------0-|-0-|-0---|--|--|--
E|---------|--------------------|-------------------|---|-----|--|--|--





G-|--|--|--|----------|-------------1-4-|-7-4-----5-2--|------5-2------
D-|--|--|--|--------2-|-----0-2-2-2-----|-----0-0------|-0--0----------
A-|--|--|--|-0--0-4---|-0-4-------------|--------------|----------0--0-
E-|--|--|--|----------|-----------------|--------------|---------------





G|-----|-2------------|--------------1-4-|-7-4-----5-2--|------5-2------
D|---2-|---2--------2-|------0-2-2-2-----|-----0-0------|-0--0----------
A|-4---|-----0--0-4---|-0--4-------------|--------------|----------0--0-
E|-----|--------------|------------------|--------------|---------------





G|-----|-2------------|--------------1-4-|-7-4-----5-2--|------5-2------
D|---2-|---2--------2-|------0-2-2-2-----|-----0-0------|-0--0----------
A|-4---|-----0--0-4---|-0--4-------------|--------------|----------0--0-
E|-----|--------------|------------------|--------------|---------------





G|-----|-2------------|-------------1-4-|-7-4-----5-2--|------5-2------
D|---2-|---2--------2-|-----0-2-2-2-----|-----0-0------|-0--0----------
A|-4---|-----0--0-4---|-0-4-------------|--------------|----------0--0-
E|-----|--------------|-----------------|--------------|---------------





G|-----|-2-----|--|--*|-
D|---2-|---2---|--|--*|-
A|-4---|-----0-|--|--*|-
E|-----|-------|--|--*|-





Comments


Popular Blur tabs & chords
Caramel Chords
The Universal 3 Chords
Yuko And Hiro Chords
Bank Holiday Tabs
Charmless Man Intro Tabs
Clover Over Dover Tabs
Luminous Tabs
Trimm Trabb Tabs
Ernold Same Ukulele
Topman Ukulele


Song lyrics



↑ Back to top | Tablatures and chords are parodies/interpretations of the original songs. You may use it for private study, scholarship, research or language learning purposes only
© 2014 AZChords.com Contact us | Privacy policy | DMCA | Add/correct tabs | Request tabs | Top 50 tabs