» » »

Bugman Bass tabs (ver.1)

Artists:  A B C D E F G H I J K L M N O P Q R S T U V W X Y Z # 

Bugman Bass tabs (ver.1)

Blur
Rating:
5/5 (2 votes)

Hard to play? Try these video lessons and learn fast.
                Bugman - BLUR
Bass

Stomp on that Fuzz pedal, crank up the volume and pretend your Alex:

8 bars of guitar intro, then:

Main Riff:
  A#              F#   /G#/F#/G#/F#
G|---6-----------|----------------|
D|-8---8-6h8-6h8-|-4--4--6-4-6-4--|  x4
A|---------------|----------------|
E|---------------|----------------|

Chorus:
  C#                  F#             G#
G|---------|---------|---------|-----------|
D|---------|---------|---------|-----------|  
A|---------|-----7-8-|-9-9-9-9-|-9-9-11-11-|
E|-9-9-9-9-|-9-9-----|---------|-----------|

  C#                  F#            
G|---------|---------|---------|-----------|
D|---------|---------|---------|-----------|  
A|---------|-----7-8-|-9-9-9-9-|-9-9-------|
E|-9-9-9-9-|-9-9-----|---------|-----------|

Main Riff x4

Chorus

Break:

        A#	            A#
G|---------|---------|---------|---------|
D|---------|---------|---------|---------|  
A|---------|---------|---------|---------|
E|-------6-|---------|-------6-|---------|
  Bu-uh-uhg-man,      bu-uh-uhg-man

        A#	            A#
G|---------|---------|---------|---------|
D|---------|---------|---------|---------|  
A|---------|---------|---------|---------|
E|-------6-|---------|-------6-|---------|
  Bu-uh-uhg-man,      waaaaa!

Main Riff (for as long as you can take it)

Then you move into the outro, where you play anything, 
but here some riffs Alex plays on the recond:

G|---------|---------|---------|---------|
D|-----6h8-|-----6h8-|-----6h8-|-----6h8-| 
A|---------|---------|---------|---------|
E|-4h6-----|-4h6-----|-4h6-----|-4h6-----|
    
G|--------|----------|----------|------------|
D|-8--8-8-|-6h8--8-8-|-6h8--8-8-|-6h8----6-7-|  (repeat)
A|--------|----------|----------|------8-----|
E|--------|----------|----------|------------|
   
        ***
G|------------|----------|
D|-8--8888888-|---6-7-8--|  (repeat)
A|------------|-8--------|  (*** really rapid-fire notes)
E|------------|----------|
            
Hard to play? Try these video lessons and learn fast. | Correct




comments powered by Disqus
↑ Back to top | Tablatures and chords are parodies/interpretations of the original songs. You may use it for private study, scholarship, research or language learning purposes only