» » »

Blur, A Song Tabs (ver.5)

Artists:  A B C D E F G H I J K L M N O P Q R S T U V W X Y Z # 

A Song Tabs (ver.5)

Blur Tabs
 Rating:
4/5 (4 votes)
A Song lessons Tabs too difficult? Try these video lessons and learn fast
1
                #------------------------------------------------------------------------------##
#


Blur - "A Song" (from the single "Charmless Man")

A great song, but it's too short!!!


A   C   D    A   C   D#


A    C		  D
When he speaks to her

G	A#m	  G
Without looking at her

A	     C	       D#
You sing the driest of words

A#       A	 E
With his mind on what's on the telly

A   C		D
The rumors pass on

G     A#m        G
As he staggers through the air

A       C	    D#
Knowing he won't get home

A#     A       E
To the word of people in cars alone (???)

E ---------3-5-3-5-3-5-----------3-5-7--|
B --------------------------------------|
G ---2-5-4----------------2-5-4---------|  to fade
D --------------------------------------|
A -0--------------------0---------------|
E --------------------------------------|

A#m: 1		A#: 1
     2              3
     3              3
     3              3
     1              1


Blur - "No Monsters In Me" (from the single "The Universal")

The head of the Blur Fan Club says that this song sounds like
Faith No More.  Not to me it doesn't, it sounds more like Menswear.

Intro (4x):

E -----------------------------|
B -----------------------------|
G --9^--9-9-9^--9-9^--9-9^--9--|
D --7^--7-7-7^--7-7^--7-7^--7--|
A -----------------------------|
E -----------------------------|

Verse:

E -----------------------------------------------|
B -----------------------------------------------|
G -----------------------------------------------|
D --7--7-7-7--7-7--7-7--5\3--3-3-3--3-3--3-3--5--|
A -----------------------------------------------|
E -----------------------------------------------|

E -----------------------------------------------|
B -----------------------------------------------|
G --/9--9-9-9--9-9--9-9--9\7--7-7-7--7-7--7-7----|
D --------------------------------------------6--|
A -----------------------------------------------|
E -----------------------------------------------|

A --2--2---5--     ----------------------   |
#------------------------------------------------------------------------------##

Blur - "Ultranol" (from the single "The Universal")

Easily one of their best b-sides to date.  I don't know the
words, but here are the chords, it's better to play them with
power (fifth) chords:

Verse:

A  (A#)  B


Transition:

A     D  C#  B


Chorus:

G     F#  F  E  (2x)  D  C#  C  C#   D  C#  C  C#


Ending:

D    C
            
Submit corrections

comments powered by Disqus
↑ Back to top | Blur Tabs for A Song. Lyrics for acoustic guitar and electric guitar. 1 Tablatures and chords are parodies/interpretations of the original songs. You may use it for private study, scholarship, research or language learning purposes only