» » »

Blues, Blues Turn Around Tabs (ver.1)

Artists:  A B C D E F G H I J K L M N O P Q R S T U V W X Y Z # 

Blues Turn Around Tabs (ver.1)

Blues Tabs
Rating:
3/5 (1 vote)
Blues Turn Around lessons Tabs too difficult? Try these video lessons and learn fast
                Palm mute when you feel its necessary. I usually palm the beginning then build.

-------------------------------------------------------------------------------------------------|
-------------------------------------------------------------------------------------------------|
-------------------------------------------------------------------------------------------------|
--------------------------2-2-4-4-(x3)--2-4p2p0-----------------------------4---5------2-2-4-5-4-|
--2-2-4-4-(x3)--2--4p2p0--0-0-0-0-------0----------2-2-4-4-(x3)--2-4----2-2---2---2----0-0--0-0--|
--0-0-0-0-------0----------------------------------0-0-0-0-------0-0-----------------------------|


-------------------------------------------------------------------------------------------------|
-------------------------------------------------------------------------------------------------|
-------------------------------------------------------------------------------------------------|
-------------------------------------------------------------------------------------------------|
--2-2-4-2-5-2-4--2-2-2-2------Repeat-------------------------------------------------------------|
--0-0-0-0-0-0-0--0-0-0-0-------------------------------------------------------------------------|

1st tab. Thanks guys.
            
Submit corrections

comments powered by Disqus
↑ Back to top | Blues Tabs for Blues Turn Around. Lyrics for acoustic guitar and electric guitar. Tablatures and chords are parodies/interpretations of the original songs. You may use it for private study, scholarship, research or language learning purposes only