>
 >
James

James Bass Tabs

Blue October - James chords, tabs, tablatures, lyrics

Guitar lessons | Add/correct | Request | Top 50 tabs Artists:  A B C D E F G H I J K L M N O P Q R S T U V W X Y Z 0-9

James Bass Tabs – Blue October

CD, Sheet music, Poster

Do you like James? Share with your friends now
Bass TabsBass Tabs v2Tabs
Tuning: Down Half A Step From Standard

Key:
 + Slap with thumb
 - Pluck with index
 P Pull off
 H Hammer on
 ~ Let ring
 / Slide up
 \ Slide down

This is my first tab but I think I got this song pretty much down. Probably a few
mess-ups here and there so feel free to send me any corrections. Next to "Razorblade"
this is probably my favorite Blue October song. This is a kick ass band and a kick ass
song so enjoy.

 Intro (After guitar intro)
   + +++ ++++ + +++ ++++
F#|------------------------|        _
C#|------------------------|    \/ | |
G#|------------------------|    /\  /
D#|-1-111-1111-1-111-1114--|       |__

 Verse (Starts with "Kneel down")
   + +++ ++  -  -           __   
F#|--------------1---------|   |
C#|-----------1H3----------|   |
G#|------------------------|   |
D#|-1-111--11--------------|   |
                               \/ |_|
   + +++ ++  -  -              /\   |
F#|--------------1H3-------|   |
C#|-----------1H3----------|   |
G#|------------------------|   |
D#|-1-111--11--------------| __|

 Bridge (Starts with "So I said")
   + ++ -    ++ -
F#|------------------------|
C#|------3H5-----3H5-------|    \/ |_|
G#|------------------------|    /\   |
D#|-1-11------11-----------|

   + ++      + ++   
F#|------------------------|
C#|------------------------|    \/ |_|
G#|------------------------|    /\   |
D#|-1-11------1-11---------|

 Chorus (Starts with "And I say")
                            __
F#|------------------------|   |           
C#|------------------------|   |           
G#|---7P5H7P5---5----------|   |        
D#|-0---------7---7-6-0-33-|   |
                               \/ |_|
                               /\   |
F#|------------------------|   |
C#|------------------------|   |
G#|---7P5H7P5---5----------|   |
D#|-0---------7---7-6-0-3--| __| 


 Verse (Starts with "Your not so brave")
   + +++ ++  -  -           __   
F#|--------------1---------|   |
C#|-----------1H3----------|   |
G#|------------------------|   |
D#|-1-111--11--------------|   |
                               \/ |_|
   + +++ ++  -  -              /\   |
F#|--------------1H3-------|   |
C#|-----------1H3----------|   |
G#|------------------------|   |
D#|-1-111--11--------------| __|

 Bridge (Starts with "So I said")
   + ++ -    ++ -
F#|------------------------|
C#|------3H5-----3H5-------|    \/ |_|
G#|------------------------|    /\   |
D#|-1-11------11-----------|

   + ++      + ++   
F#|------------------------|
C#|------------------------|    \/ |_|
G#|------------------------|    /\   |
D#|-1-11------1-11---------|

 Chorus (Starts with "And I say")
                            __
F#|------------------------|   |           
C#|------------------------|   |           
G#|---7P5H7P5---5----------|   |        
D#|-0---------7---7-6-0-33-|   |
                               \/ |_|
                               /\   |
F#|------------------------|   |
C#|------------------------|   |
G#|---7P5H7P5---5----------|   |
D#|-0---------7---7-6-0-3--| __| 

 Bass Solo
   +  ++-++ 
F#|------1-----------------|
C#|-1H333-31H3P1-----------|
G#|------------------------|
D#|------------------------|
   + ++ -  --  --
F#|---------1---1----------|
C#|------1H3-1H3-1H3-------|
G#|------------------------|
D#|-1-11-------------------|
   + ++ -  --  ---
F#|---------1---1-1H3------|
C#|------1H3-1H3-3---------|
G#|------------------------|
D#|-1-11-------------------|
   + ++ -  - 
F#|---------1--------------|
C#|------1H3-31------------|
G#|------------321---------|
D#|-1-11----------1--------|

F#|---------1---1----------|
C#|------1H3-1H3-1H3-------|
G#|------------------------|
D#|-1-11-------------------|

F#|---------1---1-1H3------|
C#|------1H3-1H3-3---------|
G#|------------------------|
D#|-1-11-------------------|

F#|---------1---1----------|
C#|------1H3-1H3-1H3-------|
G#|------------------------|
D#|-1-11-------------------|

F#|---------1---1----------|
C#|------1H3-1H3-1H3-------|
G#|------------------------|
D#|-1-11-------------------|

 Bridge #2
   + +++ + ++ + +++ + ++-   __
F#|----------------------1-|   |
C#|------------------------|   | \/ |_|
G#|------------------------|   | /\   |
D#|-1-111-1-11-1-111-1-11--| __|
    _   _  _ ___
   |_| |_ |_  |
   | \ |_  _| |
  
   ++-++-++-++-+-           __
F#|---1--1--1--1-1H3-------|   |    __
C#|------------------------|   | \/ __|
G#|------------------------|   | /\ __| 
D#|-01-01-01-01-1----------| __|
   ++-  +-  +-  +-  +
F#|-------1H3-----1H3------|
C#|---1H3-----1H3----------|
G#|------------------------|
D#|-01---0---0---0---0/14\-|

 Chorus (Starts with "And I say")
                            __
F#|------------------------|   |           
C#|------------------------|   |           
G#|---7P5H7P5---5----------|   |        
D#|-0---------7---7-6-0-33-|   |    _
                               \/ |_|
                               /\ |_|
F#|------------------------|   |
C#|------------------------|   |
G#|---7P5H7P5---5----------|   |
D#|-0---------7---7-6-0-3--| __| 

 Outro (Pretty much the same as Bridge #2)
   + +++ + ++ + +++ + ++-   __
F#|----------------------1-|   |    __
C#|------------------------|   | \/ __|
G#|------------------------|   | /\ __|
D#|-1-111-1-11-1-111-1-11--| __|

   + +++ + ++ + +++ + ++-+  
F#|----------------------1--|
C#|-------------------------| 
G#|-------------------------|  
D#|-1-111-1-11-1-111-1-11-1~| 





Comments


Popular Blue October tabs & chords
21st Bass Tabs
The 21st Bass Tabs
The Feel Again Stay 1 Chords
The Worry List Chords
A Quiet Mind Tabs
Dirty Room Intro Tabs
Let It Go Intro Tabs
Still Broken 1 Tabs
Amazing Ukulele
Chameleon Boy Ukulele


Song lyrics



↑ Back to top | Tablatures and chords are parodies/interpretations of the original songs. You may use it for private study, scholarship, research or language learning purposes only
© 2014 AZChords.com Contact us | Privacy policy | DMCA | Add/correct tabs | Request tabs | Top 50 tabs