» » »

James Tabs (ver.2)

Artists:  A B C D E F G H I J K L M N O P Q R S T U V W X Y Z # 

James Tabs (ver.2)

Blue October
Rating:
0/5 (0 votes)

Tabs too difficult? Try these video lessons and learn fast.
                This is my first tab, but this is such a GOOD SONG  and the intro posted on all these 
is wrong anyway and very boring. I think this one is better and more fun to play.

Intro:
Gtr 1
e|-----------------------------------------------------------------------|
B|-----------------------------------------------------------------------|
G|-9--9-9-9-/10-9--9--9-9-9-9-/10-9---9--9-9-9-/10-9~-10\-9--9-9-9-/12~--|
D|-----------------------------------------------------------------------|x4
A|-7--7-7-7-/8--7--7--7-7-7-7-/8--7---7--7-7-7-/8--7~-8\--7--7-7-7-/10~--|
E|-----------------------------------------------------------------------|

First part of Verse is just bass...

Verse 0:40
Gtr 1
e|------------------------------------------------|
B|------------------------------------------------|
G|------------------------------------------------|
D|-10~---9~---12~---10~---10~---7~6~---6~----7~---|
A|------------------------------------------------|
E|------------------------------------------------|

Chorus:
Gtr 1
e|----------------------------|
B|----------------------------|
G|----------------------------|
D|----------------------------|x8
A|-----7-5-7-5---5------------|
E|--0----------7---7-6-5-0-3~-|

Verse 1:40
Gtr 1
e|------------------------------------------------|
B|------------------------------------------------|
G|------------------------------------------------|
D|-10~---9~---12~---10~---10~---7~6~---6~----7~---|
A|------------------------------------------------|
E|------------------------------------------------|

Chorus:
Gtr 1
e|----------------------------|
B|----------------------------|
G|----------------------------|
D|----------------------------|x8
A|-----7-5-7-5---5------------|
E|--0----------7---7-6-5-0-3~-|

Then
Gtr 1
e|----------------------------------------------|
B|-13~-12~--10~--10~--------------------9~-10~--|
G|-------------------12~-10~-9~--9~-11~---------|
D|----------------------------------------------|
A|----------------------------------------------|
E|----------------------------------------------|

Back to Intro
Gtr 1
e|-----------------------------------------------------------------------|
B|-----------------------------------------------------------------------|
G|-9--9-9-9-/10-9--9--9-9-9-9-/10-9---9--9-9-9-/10-9~-10\-9--9-9-9-/12~--|
D|-----------------------------------------------------------------------|x4
A|-7--7-7-7-/8--7--7--7-7-7-7-/8--7---7--7-7-7-/8--7~-8\--7--7-7-7-/10~--|
E|-----------------------------------------------------------------------|

For this part just rest your fingers on the fret

Bridge/Instrum.
Gtr 1
e|-------------------------------------------------|
B|-xxxxxxxxxxxx-9-9-9-9-9-xxxxxxxxxxxx-9-9-9-9-9-9-|
G|-xxxxxxxxxxxx-9-9-9-9-9-xxxxxxxxxxxx-9-9-9-9-9-9-|
D|-xxxxxxxxxxxx-9-9-9-9-9-xxxxxxxxxxxx-9-9-9-9-9-9-|x2
A|-777777777777-9-9-9-9-9-777777777777-9-9-9-9-9-9-|
E|-77777777777777777777777777777777777777777777777-|
  p.m.............................................
"James, How I Love to Hate You!!!"
Chorus:
Gtr 1
e|----------------------------|
B|----------------------------|
G|----------------------------|
D|----------------------------|x8
A|-----7-5-7-5---5------------|
E|--0----------7---7-6-5-0-3~-|

Then kind of a siren thing... could be played
Chorus:
Gtr 1
e|----------------------------|
B|----------------------------|
G|-4/slide~~~~~~9\slide~~~~~4-|
D|----------------------------|
A|----------------------------|
E|----------------------------|

Outro:
Gtr 1
e|-----------------------------------------------------------------------|
B|-----------------------------------------------------------------------|
G|-9--9-9-9-/10-9--9--9-9-9-9-/10-9---9--9-9-9-/10-9~-10\-9--9-9-9-/12~--|
D|-----------------------------------------------------------------------|x4
A|-7--7-7-7-/8--7--7--7-7-7-7-/8--7---7--7-7-7-/8--7~-8\--7--7-7-7-/10~--|
E|-----------------------------------------------------------------------|

Gtr 1
e|----|
B|----|
G|-9~-|
D|----|
A|-7~-|
E|----|

I am pretty sure this is 100% accurate. Please correct me if I am wrong.
Peace out Homies!
            
Tabs too difficult? Try these video lessons and learn fast.


comments powered by Disqus
↑ Back to top | Tablatures and chords are parodies/interpretations of the original songs. You may use it for private study, scholarship, research or language learning purposes only