» » »

Blue October, Graceful Dancing Tabs (ver.1)

Artists:  A B C D E F G H I J K L M N O P Q R S T U V W X Y Z # 

Graceful Dancing Tabs (ver.1)

Blue October Tabs
 Rating:
4/5 (4 votes)
Graceful Dancing lessons Tabs too difficult? Try these video lessons and learn fast
                Blue October
Approaching Normal

Intro:
E--------------------------|
B----2-----2-----2-----2---|
G---2-2---2-2---1-1---1-1--|
D--2---2-2---2-2---2-2---2-|
A-0-----0-----4-----4------|
E--------------------------|

E------------------------|
B----3-----3------3------|
G---4-4---4-4---4--4-----|
D--4---4-4---4-2-2--2-2~-|
A-2-----2----------------|
E------------------------|

Verse:
E--------------------------|
B----2-----2-----2-----2---|
G---2-2---2-2---1-1---1-1--|
D--2---2-2---2-2---2-2---2-|
A-0-----0-----4-----4------|
E--------------------------|

E----------------------------|
B----3-----3------3------3---|
G---4-4---4-4---4--4---4--4--|
D--4---4-4---4-2-2--2-2-2--2-|
A-2-----2--------------------|
E----------------------------|

Chorus:
E--------------------------|
B----3-----3-----2-----2---|
G---4-4---4-4---2-2---1-1--|
D--4---4-4---4-2---2-2---2-|
A-2-----2-----0-----4------|
E--------------------------|
3x then

E------------------------|
B----3-----3------3------|
G---4-4---4-4---4--4-----|
D--4---4-4---4-2-2--2-2~-|
A-2-----2----------------|
E------------------------|

Outro: repeat as necessary
E--------|
B----2---|
G---2-2--|
D--2---2-|
A-0------|
E--------|

Order:
Intro 1x
Verse 2x
Chorus 1x
Verse 2x
Chorus 1x
Verse 2x
Chorus 1x
Outro

Questions?
            
Submit corrections

comments powered by Disqus
↑ Back to top | Blue October Tabs for Graceful Dancing. Lyrics for acoustic guitar and electric guitar. Tablatures and chords are parodies/interpretations of the original songs. You may use it for private study, scholarship, research or language learning purposes only