» » »

Dirt Room Tabs (ver.1)

Artists:  A B C D E F G H I J K L M N O P Q R S T U V W X Y Z # 

Dirt Room Tabs (ver.1)

Blue October
Rating:
0/5 (0 votes)

Hard to play? Try these video lessons and learn fast.
                (Live)
			  Dirt Room - Blue October

Tuning: standard


this is 100% for sure, i've been watching a video for the last hour
trying to figure out how CB plays it himself and im 100% sure this is
it ,the whole song is played on the D and G strings, its very simple



verse

e|------------------------------------------------------------------------|
B|------------------------------------------------------------------------|
G|--------7-----7---7-----7-----7---7-----6-----6---6-----6-----6---6-----|
D|----9-9---9-9---9---9-9---9-9---9---7-7---7-7---7---7-7---7-7---7-------|
A|------------------------------------------------------------------------|
E|------------------------------------------------------------------------|
                                                                         X3
e|------------------------------------------------------------------------|
B|------------------------------------------------------------------------|
G|--------1-----1---1-----1-----1---1-----2-----2---2-----2-----2---2-----|
D|----2-2---2-2---2---2-2---2-2---2---4-4---4-4---4---4-4---4-4---4-------|
A|------------------------------------------------------------------------|
E|------------------------------------------------------------------------|




pre-chorud

e|------------------------------------------------------------------------|
B|------------------------------------------------------------------------|
G|---7-7-7-7-7-7-7-7-9-9-9-9-9-9-9-9--1313131313131313-1111111111111111---|
D|---9-9-9-9-9-9-9-9-1111111111111111-1414141414141414-1212121212121212---|
A|------------------------------------------------------------------------|
E|------------------------------------------------------------------------|




chorus

e|----------------------------------------------------------------------|
B|----------------------------------------------------------------------|
G|---7-7-7-7-7-7-7-7-7-7-7-7-7-7-7-7-9-9-9-9-9-9-9-9-9-9-9-9-9-9-9-9----|
D|---9-9-9-9-9-9-9-9-9-9-9-9-9-9-9-9-11111111111111111111111111111111---|
A|----------------------------------------------------------------------|
E|----------------------------------------------------------------------|

e|----------------------------------------------------------------------|
B|----------------------------------------------------------------------|
G|---13131313131313131313131313131313-11111111111111111111111111111111--|
D|---14141414141414141414141414141414-12121212121212121212121212121212--|
A|----------------------------------------------------------------------|
E|----------------------------------------------------------------------|




right after the first chorus

e|-------------------------------------|
B|-------------------------------------|
G|-------6-----6---6-----6-----6---6---|
D|---7-7---7-7---7---7-7---7-7---7-----|
A|-------------------------------------|
E|-------------------------------------|
                                                                         
e|------------------------------------------------------------------------|
B|------------------------------------------------------------------------|
G|--------1-----1---1-----1-----1---1-----2-----2---2-----2-----2---2-----|
D|----2-2---2-2---2---2-2---2-2---2---4-4---4-4---4---4-4---4-4---4-------|
A|------------------------------------------------------------------------|
E|------------------------------------------------------------------------|




verse 2

e|------------------------------------------------------------------------|
B|------------------------------------------------------------------------|
G|--------7-----7---7-----7-----7---7-----6-----6---6-----6-----6---6-----|
D|----9-9---9-9---9---9-9---9-9---9---7-7---7-7---7---7-7---7-7---7-------|
A|------------------------------------------------------------------------|
E|------------------------------------------------------------------------|
                                                                         X2
e|------------------------------------------------------------------------|
B|------------------------------------------------------------------------|
G|--------1-----1---1-----1-----1---1-----2-----2---2-----2-----2---2-----|
D|----2-2---2-2---2---2-2---2-2---2---4-4---4-4---4---4-4---4-4---4-------|
A|------------------------------------------------------------------------|
E|------------------------------------------------------------------------|




chorus

e|----------------------------------------------------------------------|
B|----------------------------------------------------------------------|
G|---7-7-7-7-7-7-7-7-7-7-7-7-7-7-7-7-9-9-9-9-9-9-9-9-9-9-9-9-9-9-9-9----|
D|---9-9-9-9-9-9-9-9-9-9-9-9-9-9-9-9-11111111111111111111111111111111---|
A|----------------------------------------------------------------------|
E|----------------------------------------------------------------------|

e|----------------------------------------------------------------------|
B|----------------------------------------------------------------------|
G|---13131313131313131313131313131313-11111111111111111111111111111111--|
D|---14141414141414141414141414141414-12121212121212121212121212121212--|
A|----------------------------------------------------------------------|
E|----------------------------------------------------------------------|

e|----------------------------------------------------------------------|
B|----------------------------------------------------------------------|
G|---7-7-7-7-7-7-7-7-7-7-7-7-7-7-7-7-9-9-9-9-9-9-9-9-9-9-9-9-9-9-9-9----|
D|---9-9-9-9-9-9-9-9-9-9-9-9-9-9-9-9-11111111111111111111111111111111---|
A|----------------------------------------------------------------------|
E|----------------------------------------------------------------------|

e|----------------------------------------------------------------------|
B|----------------------------------------------------------------------|
G|---13131313131313131313131313131313-11111111111111111111111111111111--|
D|---14141414141414141414141414141414-12121212121212121212121212121212--|
A|----------------------------------------------------------------------|
E|----------------------------------------------------------------------|




the strumming is to hard to tab, you'll have to figure it out for youself,
its really easy though, same notes as the chorus just different strumming

brigde

e|-------------------------| X2
B|-------------------------|
G|---7----9-----13----11---|
D|---9----11----14----12---|
A|-------------------------|
E|-------------------------|




chorus

e|----------------------------------------------------------------------|
B|----------------------------------------------------------------------|
G|---7-7-7-7-7-7-7-7-7-7-7-7-7-7-7-7-9-9-9-9-9-9-9-9-9-9-9-9-9-9-9-9----|
D|---9-9-9-9-9-9-9-9-9-9-9-9-9-9-9-9-11111111111111111111111111111111---|
A|----------------------------------------------------------------------|
E|----------------------------------------------------------------------|

e|----------------------------------------------------------------------|
B|----------------------------------------------------------------------|
G|---13131313131313131313131313131313-11111111111111111111111111111111--|
D|---14141414141414141414141414141414-12121212121212121212121212121212--|
A|----------------------------------------------------------------------|
E|----------------------------------------------------------------------|

e|----------------------------------------------------------------------|
B|----------------------------------------------------------------------|
G|---7-7-7-7-7-7-7-7-7-7-7-7-7-7-7-7-9-9-9-9-9-9-9-9-9-9-9-9-9-9-9-9----|
D|---9-9-9-9-9-9-9-9-9-9-9-9-9-9-9-9-11111111111111111111111111111111---|
A|----------------------------------------------------------------------|
E|----------------------------------------------------------------------|

e|----------------------------------------------------------------------|
B|----------------------------------------------------------------------|
G|---13131313131313131313131313131313-11111111111111111111111111111111--|
D|---14141414141414141414141414141414-12121212121212121212121212121212--|
A|----------------------------------------------------------------------|
E|----------------------------------------------------------------------|


and thats it, its a very simple song, im sure its 100%, if you
dont believe me go to this link and watch very closly and you'll
see these are the notes that CB plays live, by the way i got the
verses from the live video of blue october on jimmy kemmel and
the rest of the song is from this video
            
Hard to play? Try these video lessons and learn fast. | Correct




comments powered by Disqus
↑ Back to top | Tablatures and chords are parodies/interpretations of the original songs. You may use it for private study, scholarship, research or language learning purposes only