» » »

Dirt Room Tabs (ver.3)

Artists:  A B C D E F G H I J K L M N O P Q R S T U V W X Y Z # 

Dirt Room Tabs (ver.3)

Blue October
Rating:
4/5 (2 votes)

Hard to play? Try these video lessons and learn fast.
                Blue October
Dirt Room
Approaching Normal

Intro/Verse: each section 2x
E----------------|
B----------------|
G-----7-----7--7-|
D-9-9---9-9---9--|
A----------------|
E----------------|

E----------------|
B----------------|
G-----6-----6--6-|
D-7-7---7-7---7--|
A----------------|
E----------------|

E----------------|
B----------------|
G----------------|
D-----6-----6--6-|
A-7-7---7-7---7--|
E----------------|

E----------------|
B----------------|
G----------------|
D-----7-----7--7-|
A-9-9---9-9---9--|
E----------------|

Chorus: each chord 8x
E-----------|
B-----------|
G-4-6-13-11-|
D-x-x--x--x-|
A-2-4-11--9-|
E-----------|

E---------------------|
B---------------------|
G-4-4-6-6-13-13-11-11-|
D-x-x-x-x--x-x---x--x-|
A-2-2-4-4-11-11--9--9-|
E---------------------|

Pre-Verse: each section 2x
E----------------|
B----------------|
G-----6-----6--6-|
D-7-7---7-7---7--|
A----------------|
E----------------|

E----------------|
B----------------|
G----------------|
D-----6-----6--6-|
A-7-7---7-7---7--|
E----------------|

E----------------|
B----------------|
G----------------|
D-----7-----7--7-|
A-9-9---9-9---9--|
E----------------|

Verse:
E----------------|
B----------------|
G-----7-----7--7-|
D-9-9---9-9---9--|
A----------------|
E----------------|

E----------------|
B----------------|
G-----6-----6--6-|
D-7-7---7-7---7--|
A----------------|
E----------------|

E----------------|
B----------------|
G----------------|
D-----6-----6--6-|
A-7-7---7-7---7--|
E----------------|

E----------------|
B----------------|
G----------------|
D-----7-----7--7-|
A-9-9---9-9---9--|
E----------------|

Chorus 2: each chord 8x
E---------------------|
B---------------------|
G-4-4-6-6-13-13-11-11-|
D-x-x-x-x--x-x---x--x-|
A-2-2-4-4-11-11--9--9-|
E---------------------|

E---------------------|
B---------------------|
G-4-4-9-9-13-13-11-11-|
D-x-x-x-x--x-x---x--x-|
A-2-2-7-7-11-11--9--9-|
E---------------------|

Break:
E----------------------------------------|
B----------------------------------------|
G-4--4-44--4--44-44449--9-99--9--99-9999-|
D-x--x-xx--x--xx-xxxxx--x-xx--x--xx-xxxx-|
A-2--2-22--2--22-22227--7-77--7--77-7777-|
E----------------------------------------|

E--------------------------------------------------------------|
B--------------------------------------------------------------|
G-13--13-1313--13--1313-1313131311--11-1111--11--1111-11111111-|
D--x---x--x-x---x---x-x--x-x-x-x-x---x--x-x---x---x-x--x-x-x-x-|
A-11--11-1111--11--1111-11111111-9---9--9-9---9---9-9--9-9-9-9-|
E--------------------------------------------------------------|

Chorus 3: each chord 8x
E---------------------|
B---------------------|
G-4-4-9-9-13-13-11-11-|
D-x-x-x-x--x-x---x--x-|
A-2-2-7-7-11-11--9--9-|
E---------------------|

Questions?
            
Hard to play? Try these video lessons and learn fast. | Correct




comments powered by Disqus
↑ Back to top | Tablatures and chords are parodies/interpretations of the original songs. You may use it for private study, scholarship, research or language learning purposes only