» » »

Blue October, Dirt Room Tabs (ver.2)

Artists:  A B C D E F G H I J K L M N O P Q R S T U V W X Y Z # 

Dirt Room Tabs (ver.2)

Blue October Tabs
 Rating:
4/5 (13 votes)
Dirt Room lessons Tabs too difficult? Try these video lessons and learn fast
                this is a easy song but its pretty catchy, i hope you enjoy

Intro

e|-------------------------------------------------------|
B|----3----3---3---3----3--3-----2----2--2----2----2--2--|
G|-4-4--4-4--4--4-4--4-4--4---2-2--2-2--2--2-2--2-2--2---|
D|-------------------------------------------------------|
A|-------------------------------------------------------|
E|-------------------------------------------------------|

e|-------------------------------------------------------|
B|-------------------------------------------------------|
G|----1----1---1---1----1--1-----2----2--2----2----2--2--|
D|-2-2--2-2--2--2-2--2-2--2---4-4--4-4--4--4-4--4-4--4---|
A|-------------------------------------------------------|
E|-------------------------------------------------------|


Verse

The lead guitar is the same as the intro in the beginning of the verse
accompanied with drums then followed by bass and rythim guitar as followed

e|-------------------------------------------------------|
B|----3----3---3---3----3--3-----2----2--2----2----2--2--|
G|-4-4--4-4--4--4-4--4-4--4---2-2--2-2--2--2-2--2-2--2---|
D|-------------------------------------------------------|
A|-------------------------------------------------------|
E|-------------------------------------------------------|

  -------------------------------------------------------|
  -------------------------------------------------------|
  ----1----1---1---1----1--1-----2----2--2----2----2--2--|
  -2-2--2-2--2--2-2--2-2--2---4-4--4-4--4--4-4--4-4--4---|
  -------------------------------------------------------|
  -------------------------------------------------------|

   lead guitar
e|-------------------------------------------------------|
B|----3----3---3---3----3--3-----2----2--2----2----2--2--|
G|-4-4--4-4--4--4-4--4-4--4---2-2--2-2--2--2-2--2-2--2---|
D|-------------------------------------------------------|
A|-------------------------------------------------------|
E|-------------------------------------------------------|
 |                                                       |
 | rythm guitar                                          |
e|-------------------------------------------------------|
B|-------------------------------------------------------|
G|-4~~~~~~~~~~~~~~~~~~~~~~~~--2~~~~~~~~~~~~~~~~~~~~~~~~~-|
D|-------------------------------------------------------|
A|-------------------------------------------------------|
E|-------------------------------------------------------|
 |                                                       |
 | bass                                                  |
G|-------------------------------------------------------|
D|-------------------------------------------------------|
A|-2-2-2-2-2-2-2-2-2-2-2-2-2--0-0-0-0-0-0-0-0-0-0-0-0-0--|
E|-------------------------------------------------------|


   lead guitar
e|-------------------------------------------------------|
B|-------------------------------------------------------|
G|----1----1---1---1----1--1-----2----2--2----2----2--2--|
D|-2-2--2-2--2--2-2--2-2--2---4-4--4-4--4--4-4--4-4--4---|
A|-------------------------------------------------------|
E|-------------------------------------------------------|
 |                                                       |
 | rythm guitar                                          |
e|-------------------------------------------------------|
B|-------------------------------------------------------|
G|-1~~~~~~~~~~~~~~~~~~~~~~~~-2~~~~~~~~~~~~~~~~~~~~~~~~~~-|
D|-------------------------------------------------------|
A|-------------------------------------------------------|
E|-------------------------------------------------------|
 |                                                       |
 |  bass                                                 |
G|-------------------------------------------------------|
D|-------------------------------------------------------|
A|-------------------------------------------------------|
E|-0-0-0-0-0-0-0-0-0-0-0-0-0-2-2-2-2-2-2-2-2-2-2-2-2-2-2-|


Bridge

  lead & rythm
e|-------------------------------------|
B|-33333333----------------------------|
G|-44444444-66666666-11111111-22222222-|
D|-44444444-77777777-22222222-44444444-|
A|-22222222-77777777-22222222-44444444-|
E|----------55555555-00000000-22222222-|
 |                                     |
 | bass                                |
G|-------------------------------------|
D|-------------------------------------|
A|-22222222----------------------------|
E|----------55555555-00000000-22222222-|

Chorus

  lead & rythm
e|---------------------------------------------------------------------|
B|-3333333333333333----------------------------------------------------|
G|-4444444444444444-6666666666666666-1111111111111111-2222222222222222-|
D|-4444444444444444-7777777777777777-2222222222222222-4444444444444444-|
A|-2222222222222222-7777777777777777-2222222222222222-4444444444444444-|
E|------------------5555555555555555-0000000000000000-2222222222222222-|
 |                                                                     |
 | bass                                                                |
G|---------------------------------------------------------------------|
D|---------------------------------------------------------------------|
A|-2222222222222222----------------------------------------------------|
E|------------------5555555555555555-0000000000000000-2222222222222222-|

the intro, verse and chorus repeat until a break solo with a cello or violin in it 
thing as followed

  cello or violin played in guitar
e|-------------------------------------------------------------------------|
B|-/12------------------------12-------------------------------------------|
G|------11--12--11h12p11--14------14--12--11--9--12--14--12--11--9/11------|
D|-------------------------------------------------------------------------|
A|-------------------------------------------------------------------------|
E|-------------------------------------------------------------------------|
 |
 | lead guitar                        speed pick |---------------------------|
e|---------------------------------------------------------------------------|
B|---------------------------------------------------------------------------|
G|------------------------------------------------------12b--11--------------|
D|-----------------------------------------------9b--------------------------|
A|---------------------------------------------------------------------------|
E|---------------------------------------------------------------------------|
 |                                                                         |
 | bass                  i know its not time accurate but you get the point
G|-------------------------------------------------------------------------|
D|-------------------------------------------------------------------------|
A|-2-2-2-2-2-2-2-2-2-2-2-2-------------------------------------------------|
E|-------------------------5-5-5-5-5-5-5-5-5-5-5-0-0-0-0-0-0-0-0-0-2-2-2-2-|

Pre chorus

  lead guitar
e|-19-19-19-19-19-19-19-19-17-17-17-17-17-17-17-17-|
B|-------------------------------------------------|
G|-------------------------------------------------|
D|-------------------------------------------------|
A|-------------------------------------------------|
E|-------------------------------------------------|
 |                                                 |
 |                                                 |
G|-------------------------------------------------|
D|-------------------------------------------------|
A|-2-2-2-2-2-2-2-2-2-2-2-2-------------------------|
E|-------------------------5-5-5-5-5-5-5-5-5-5-5-5-|


  lead guitar
e|-19-19-19-19-19-19-19-19-14-14-14-14-14-15-14-15-|
B|-------------------------------------------------|
G|-------------------------------------------------|
D|-------------------------------------------------|
A|-------------------------------------------------|
E|-------------------------------------------------|
 |                                                 |
 |  bass                                           |
G|-------------------------------------------------|
D|-------------------------------------------------|
A|-------------------------------------------------|
E|-0-0-0-0-0-0-0-0-0-0-0-0-2-2-2-2-2-2-2-2-2-2-2-2-|

thats about it you just repeat the bridge and chorus


intro
verse
bridge
chorus
intro
verse
chorus
solo
pre-chorus
bridge
chorus
            
Submit corrections

comments powered by Disqus
↑ Back to top | Blue October Tabs for Dirt Room. Lyrics for acoustic guitar and electric guitar. Tablatures and chords are parodies/interpretations of the original songs. You may use it for private study, scholarship, research or language learning purposes only