» » »

You Are My Sunshine Tabs (ver.1)

Artists:  A B C D E F G H I J K L M N O P Q R S T U V W X Y Z # 

You Are My Sunshine Tabs (ver.1)

Bluegrass
Rating:
0/5 (0 votes)

Hard to play? Try these video lessons and learn fast.
                YOU ARE MY SUNSHINE

This is just the lead part, You will have to add licks when playing for the 
solo and breaks..This is the first tab I have ever attemtped and I am still 
learning the guitar. So rate it so I will know how well 
I did or correct it, If I have made mistakes

*Capo on 2nd Fret                / = SLIDE

E--------------------------------------------------------I
B-------------------------------3-/-5-/-3----------------I
G-0-0-2-4-4-4-2-4-0---0-2-4-/-5------------5-4-0-2-4-/-5-I
D-------------------0------------------------------------I
A--------------------------------------------------------I
E--------------------------------------------------------I

E--------------------------------------------------------I
B-3-/-5-/-3----------------------------------------------I
G-----------5-4-0-2-4-4-/-5-2-2-4-0----------------------I
D--------------------------------------------------------I
A--------------------------------------------------------I
E--------------------------------------------------------I
            
Hard to play? Try these video lessons and learn fast. | Correct




comments powered by Disqus
↑ Back to top | Tablatures and chords are parodies/interpretations of the original songs. You may use it for private study, scholarship, research or language learning purposes only