» » »

Bluegrass, Will The Circle Be Unbroken Tabs (ver.1)

Artists:  A B C D E F G H I J K L M N O P Q R S T U V W X Y Z # 

Will The Circle Be Unbroken Tabs (ver.1)

Bluegrass Tabs
Rating:
0/5 (0 votes)
Will The Circle Be Unbroken lessons Tabs too difficult? Try these video lessons and learn fast
                



	D------|--0----0---0|---0-----0----0---------|
	B------|------------|--------0---------------|
	G------|0-----0---0-|--0---------2-----------|
	D-0-0-2|---4/5------|------------------------|
	G------|---------0--|-0---0------------------|
	

	D-------0-----0--|0---0--------0|-----0------0-|
	B---0--------0---|-0-------0----|--1-----------|
	G-0-------2/3----|--0---2/3-----|-2--0---0-----|
	D----------------|--------------|----------2---|
	G-----0---------0|-----------0--|-------0------|
	

	D------2--------2|-----0---0-----0----------|
	B--1---------1---|---0----------------------|
	G-0-----------0--|-----------0--------------|
	D--------0h2-----|-------------2------------|
	G----0-----------|-0-----0------------------|
	

	D--------|-------0-----0|----0---0--0|
	B--------|--------------|--0-----3--5|
	G-0------|-0---0-----0--|------------|
	D---0-0-2|--------------|------------|
	G--------|---0-----0----|0-----0-----|
	

	D-0---0-----0--|0---0-------0|----0---0---0|
	B-3--------0---|-0------0----|---0-----0---|
	G-------2/3----|--2---0---2--|2/3-------0--|
	D--------------|-------------|-------------|
	G---0---------0|-------------|------0------|
	

	D---0----0---0|--0-------0----0|------------|
	B--1----0-----|----------------|------------|
	G-2--------2--|0-----2/3---0---|-0----------|
	D-------------|-------------2--|------------|
	G-----0-------|----0-----------|------------|
	
            
Submit corrections

comments powered by Disqus
↑ Back to top | Bluegrass Tabs for Will The Circle Be Unbroken. Lyrics for acoustic guitar and electric guitar. Tablatures and chords are parodies/interpretations of the original songs. You may use it for private study, scholarship, research or language learning purposes only