» » »

Shuckin The Corn Tabs (ver.1)

Artists:  A B C D E F G H I J K L M N O P Q R S T U V W X Y Z # 

Shuckin The Corn Tabs (ver.1)

Bluegrass
Rating:
0/5 (0 votes)

Hard to play? Try these video lessons and learn fast.
                


	D-----|------0--------0|-------0----------0----|
	B-----|---0-------0----|---0----------0--------|
	G----0|2/3-----3\2--0--|2/3-------------0------|
	D-0-2-|----------------|-----------0h2---------|
	G-----|----0-----------|-----0-----------------|
	

	D--------0--------0|----0---0-|----2---2---2----|
	B----0--------0----|----------|---1-----1-------|
	G-2/3------3\2--0--|---0---0--|----------0------|
	D------------------|3---------|0h2--------------|
	G------0-----------|--0---0---|------0----------|
	

	D---2---2---2|----0---0--0|-------0-------0-----|
	B--1-----1---|---0-----0--|---------------------|
	G-3-------3--|2/3-------2-|0----0----0----------|
	D------------|------------|-------------2-------|
	G-----0------|------0-----|--0------------------|
	

	D------0----0--|---0----0-----0--|-0-----0----0|---|
	B---2h3----3---|2h3--2h3---------|-------------|---|
	G--------------|-----------3\2---|0---2/3--0---|-0-|
	D-0------------|-----------------|----------2--|---|
	G--------0----0|----------0-----0|---0---------|---|
		
	chorus
	D--0----|3------2-0|2-3---3--|--3-----2-0-----|
	B-------|3----2---0|2-3--3---|--3---2---0-----|
	G-0--0--|----------|---------|----------------|
	D-------|----------|---------|----------------|
	G0--0--0|--0-------|----0---0|----0-----------|
	

	D-2--3---3-|-2--2---2--|-8--8-----8------------|
	B-2--3--3--|1--1---1---|-5--5---5--------------|
	G----------|-----------|-----------------------|
	D----------|-----------|-----------------------|
	G-----0---0|------0---0|------0--------0-------|
							


	D-0-2---0--0|--0------0----0|----0---0---------|
	B--3-----0--|---------------|-2h3---3----------|
	G---------2-|0-----2/3--0---|------------------|
	D-----------|------------2--|0-----------------|
	G-----0-----|----0----------|------0---0-------|
	

	D---0----0------0--|---0------0----0|----------|
	B2h3--2h3----------|----------------|----------|
	G------------3\2---|-0----2h3---0---|-0--------|
	D------------------|-------------2--|----------|
	G----------0------0|-----0----------|----------|
	
            
Hard to play? Try these video lessons and learn fast. | Correct




comments powered by Disqus
↑ Back to top | Tablatures and chords are parodies/interpretations of the original songs. You may use it for private study, scholarship, research or language learning purposes only