» » »

Salt Creek Tabs (ver.1)

Artists:  A B C D E F G H I J K L M N O P Q R S T U V W X Y Z # 

Salt Creek Tabs (ver.1)

Bluegrass
Rating:
0/5 (0 votes)

Hard to play? Try these video lessons and learn fast.
                



	D----0---0-|-----0-----0-|------0---------0------|
	B----------|---0---1-----|---1--------1----------|
	G------0---|0h2----------|2p0-----2p0------------|
	D3/5-------|-------------|-----3--------3--------|
	G----0---0-|----------0--|-----------------------|
	
	D-------0-------0|---0---0|----0-----------0------|
	B---1------------|--------|---0----1---2h3--------|
	G2p0-------------|_----0--|0h2--------------------|
	D-----3----0-----|3/5-----|-----------------------|
	G-------------0--|---0---0|-----------------------|
	
	
	D-----2---0-----0|--------0-------0----------------|
	B---0-------0----|----0----------------------------|
	G-------------0--|-2p0-------0---------------------|
	D----------------|------4--------------------------|
	G-0-----0--------|----------------0----------------|
	
	play twice

	

	D-3----5---7|---5---0--2--|3----3------5------------|
	B-----------|--0-----0----|3---3------3-------------|
	G-----0---0-|-------------|-------------------------|
	D-----------|-------------|-------------------------|
	G-0--0---0--|-0---0------0|--0-----0----------------|
	

	D----3---0---3--|3/5---5---7|----5---0--2------------|
	B---3------3----|-----------|---------0--------------|
	G---------------|0----0---0-|--0---------------------|
	D---------------|-----------|------------------------|
	G-0----0-------0|----0---0--|0-----0------0----------|
	

	D-3-2---0-----0|---------0-----0---|
	B--3------0----|-----0-------------|
	G-----------0--|-2p0--------0------|
	D--------------|-------4-----------|
	G-----0--------|---------------0---|
	
	play twice
	
            
Hard to play? Try these video lessons and learn fast. | Correct




comments powered by Disqus
↑ Back to top | Tablatures and chords are parodies/interpretations of the original songs. You may use it for private study, scholarship, research or language learning purposes only