» » »

Bluegrass, Rollin In My Sweet Baby's Arms Tabs (ver.1)

Artists:  A B C D E F G H I J K L M N O P Q R S T U V W X Y Z # 

Rollin In My Sweet Baby's Arms Tabs (ver.1)

Bluegrass Tabs
 Rating:
4/5 (4 votes)
Rollin In My Sweet Baby's Arms lessons Tabs too difficult? Try these video lessons and learn fast
1
                




	D---------|-------0---0-----0-|------0-----------0------|
	B---------|-----0-------0-----|--0---------0------------|
	G-------0-|-2/3-----------2---|0-------2/3--------------|
	D-0--2----|-------------------|----2--------------------|
	G---------|---------0---------|---------------0---------|
	
	

	D---------0-------0-|------0-----0-|------0---0------0-|
	B-----0-------------|--------------|----0-------0------|
	G-3p2---0-----0-----|0---0-----0---|2/3-----------2----|
	D---------------2---|--------------|-------------------|
	G-----------0-------|--0-----0-----|--------0----------|
	
	
	D-------0-----0---|--0-----0-----0-|----0---0-----0----|
	B---2h3-----0-----|----------------|----------1--------|
	G-0---------------|2-----2-----2---|--2---------2------|
	D-----------------|----4-----4-----|4------------------|
	G---------0-----0-|----------------|------0------------|
	
	D---0-------0-----0|-------0------0----|--2--2------2--|
	B------------------|---0--------0------|1---1--1-------|
	G-0-------0-----0--|2/3------2/3-------|----------0----|
	D-----4/5----------|-------------------|---------------|
	G-------------0----|-----0----------0--|------0--------|
	

	D----2---2---2|--0-----0----0-|------0---------0------|
	B---1-----1---|-----------0---|--1---------0----------|
	G-------------|------0--------|2--------2/3--2--------|
	D0h2--------2-|0--------------|-----------------------|
	G------0------|----0----0-----|----0------------------|
	
	G---0------0-----0|-------------------------|
	B-----------------|-------------------------|
	G-0-----2/3--0----|-0-----------------------|
	D--------------2--|-------------------------|
	G-----0-----------|-------------------------|
	
	
            
Submit corrections

comments powered by Disqus
↑ Back to top | Bluegrass Tabs for Rollin In My Sweet Baby's Arms. Lyrics for acoustic guitar and electric guitar. 1 Tablatures and chords are parodies/interpretations of the original songs. You may use it for private study, scholarship, research or language learning purposes only