» » »

Rocky Top Tabs (ver.1)

Artists:  A B C D E F G H I J K L M N O P Q R S T U V W X Y Z # 

Rocky Top Tabs (ver.1)

Bluegrass
Rating:
0/5 (0 votes)

Hard to play? Try these video lessons and learn fast.
                 i learned this by guessing and trying untill i got right
happy picking hpe u enjoy


----------00-----------------------------------00----------
----3333-------30---------------0-------3333-------30------
-------------------0--000-202--------------------------0---
-----------------------------------------------------------
-----------------------------------------------------------
---------------------------------------------------------


--------------000-00-----111---0-000-----------------------
--------------------333-------3------30---------0----------
----000-220----------------------------0-00022----00220----
-----------------------------------------------------------
-----------------------------------------------------------
---------------------------------------------------------


do that twice this is the melody
            
Hard to play? Try these video lessons and learn fast. | Correct




comments powered by Disqus
↑ Back to top | Tablatures and chords are parodies/interpretations of the original songs. You may use it for private study, scholarship, research or language learning purposes only