» » »

Red Hairded Boy (little Beggerman) Tabs (ver.1)

Artists:  A B C D E F G H I J K L M N O P Q R S T U V W X Y Z # 

Red Hairded Boy (little Beggerman) Tabs (ver.1)

Bluegrass
Rating:
0/5 (0 votes)

Hard to play? Try these video lessons and learn fast.
                Red Haired Boy (Little Beggarman)

This is just the simple melody with nothing added, when 
playing it for show you have to add the licks around this 
to come up with your own break for the song.

Capo on the 2nd Fret

Play Part A Twice followed by Part B Twice and then play until your
fingers are sore

Part A
E-------------------------0--------------------------------|
B-------------------0-1-3---3-0-1---0-1-3-----1-0----------|
G---0-------0-2-0-------------------------0-0-----2-0------|
D-----2-0---------------------------------------------3-3--|
A----------------------------------------------------------|
E----------------------------------------------------------|

E-------------------------0---------------3-33-0-----------|
B-------------------0-1-3---3-0-1---0-1-3--------3-1-0-----|
G----------0-2-0---------------------------------------0-0-|
D---3-2-0--------------------------------------------------|
A----------------------------------------------------------|
E----------------------------------------------------------|

Part B
E-----0-1-0---3-1-0----------------------------------------|
B---3-------3-------3-1-1--0-1-3-1-0-------1-0-------------|
G------------------------------------2-0-2-----2-0---------|
D--------------------------------------------------3-3-----|
A----------------------------------------------------------|
E----------------------------------------------------------|

E-------------------------0---------------3-33-0-----------|
B-------------------0-1-3---3-0-1---0-1-3--------3-1-0-----|
G----------0-2-0---------------------------------------0-0-|
D---3-2-0--------------------------------------------------|
A----------------------------------------------------------|
E----------------------------------------------------------|
            
Hard to play? Try these video lessons and learn fast. | Correct




comments powered by Disqus
↑ Back to top | Tablatures and chords are parodies/interpretations of the original songs. You may use it for private study, scholarship, research or language learning purposes only