» » »

Foggy Mountain Breakdown (i Think Fixed It) Tabs (ver.1)

Artists:  A B C D E F G H I J K L M N O P Q R S T U V W X Y Z # 

Foggy Mountain Breakdown (i Think Fixed It) Tabs (ver.1)

Bluegrass
Rating:
0/5 (0 votes)

Hard to play? Try these video lessons and learn fast.
                

E--3--3--3------------3------3-------------3------3-----
B--0--1--2---2h3--2h3------3-----2h3--2h3-------3-------
G------------------------0--------------------0---------
D-------------------------------------------------------
A-------------------------------------------------------
E-------------------------------------------------------


E------------3----------------------------0-------------
B--2h3--2h3----------0-----------0----------0-----------
G---------------4/2-----0---3/4----0----------0---------
D-------------------------------------1/2--------0h2----
A-------------------------------------------------------
E-------------------------------------------------------


E-----0-------------------------------------------------
B-------0------------0-----------------------0----------
G--0------0---0--3/4----3/2-0-------0---3/4-----0-------
D-----------2------------------2p0----------------------
A-------------------------------------------------------
E-------------------------------------------------------


E------0-------------0----------------------------------
B--------0-------------0------------0-------------------
G----------0------0------0---0--3/4----3/2-0--------0---
D--1/2--------0h2----------2-------------------2p0------
A-------------------------------------------------------
E-------------------------------------------------------


E-------------------------------------------------------
B-------0---------3-3--2h3------0-----------------------
G--3/4----0-----------------2/4---4/2-0------0----------
D------------2-0-------------------------2p0----2-0-----
A-------------------------------------------------------
E-------------------------------------------------------


E-----------3--3--3-----   Repeat all one time          
B-----------3--3--3-----                                
G-----------0--0--0-----                                
D-----------0--0--0-----                                
A--1p0------2--2--2-----                                
E-------3---3--3--3-----                                

       ^   ^        ^   ^        ^   ^
E--2/3-3-3-3-3--2/3-3-3-3-3--2/3-3-3-3-3---6/5--3-------
B--2/3-3-3-3-3--2/3-3-3-3-3--2/3-3-3-3-3-----------6/5--
G-------------------------------------------------------
D-------------------------------------------------------
A-------------------------------------------------------
E-------------------------------------------------------


E-----------------3------0-----0-----0-----0-----0------
B--3------------3----4h5---4h5---4h5---4h5---4h5--------
G----3/2-0--3/4-----------------------------------------
D-------------------------------------------------------
A-------------------------------------------------------
E-------------------------------------------------------


E----------------------------3----0----0----0----0----0-
B------0-------------------3---4h5--4h5--4h5--4h5--4h5--
G--3/4---3/2-0------0--3/4------------------------------
D---------------2p0-------------------------------------
A-------------------------------------------------------
E-------------------------------------------------------


E-------------------------------------------------------
B------0-----------------------------------3-3--2h3-----
G--3/4----3/2-0-----0-----0-----0----0------------------
D---------------2p0----0h2---0h2--0h2---0---------------
A-------------------------------------------------------
E-------------------------------------------------------


E--3p0-----0---------------------------------3----------
B------3p0---3p0-----------------------------3----------
G-----------------3/2-0------0---------------0----------
D------------------------2p0----2p0----------0----------
A------------------------------------1p0-----2----------
E-----------------------------------------3--3----------


Please rate this or leave a comment i'm pretty sure its 
right              
            
Hard to play? Try these video lessons and learn fast. | Correct




comments powered by Disqus
↑ Back to top | Tablatures and chords are parodies/interpretations of the original songs. You may use it for private study, scholarship, research or language learning purposes only