» » »

Down Yonder Tabs (ver.1)

Artists:  A B C D E F G H I J K L M N O P Q R S T U V W X Y Z # 

Down Yonder Tabs (ver.1)

Bluegrass
Rating:
0/5 (0 votes)

Hard to play? Try these video lessons and learn fast.
                
DOWN YONDER


----------------------------------------------------------3-----
--------------------3---3--------------3--5-5--3--2--3s5----5--1--
-----0-2h4-0-2-0-2h4--4----0-2h4-0-2h4---------------------------
-0-2-------------------------------------------------------------
---------------------------------------------------------------
---------------------------------------------------------------


------------------------------------------------------------
----------------------------------------3---3-----------------
--0--2-s-4--2--0---0--2s4--2--0--0--2s4---4------------------
------------------------------------------------------------
------------------------------------------------------------
------------------------------------------------------------

-----------------------------------------------------------
---------------------------------3---3-------5----------------
--0--2-s-4--2-0-0-2s4-2--0-0-2s4---4---4-5-6---6-4-2---------
-----------------------------------------------------------
-----------------------------------------------------------
-----------------------------------------------------------

-----------------------------------------------------------
-----5--------3--5-3-------------------------------------------
-4s6---6-4-2---------5-4--2-------------------------------------
------------------------------0--2--0-------------------------
--------------------------------------3-2-0-------------------
------------------------------------------------------------

----------------------------------------------------------3-----
--------------------3---3--------------3--5-5--3--2--3s5----5--1--
-----0-2h4-0-2-0-2h4--4----0-2h4-0-2h4---------------------------
---------------------------------------------------------------
---------------------------------------------------------------
---------------------------------------------------------------

---------------------------------------------------------3---
----------------------------------------3---3---3-5-7--3-----
--0--2-s-4--2--0---0--2s4--2--0--0--2s4---4------------------
------------------------------------------------------------
------------------------------------------------------------
------------------------------------------------------------
            
Hard to play? Try these video lessons and learn fast. | Correct




comments powered by Disqus
↑ Back to top | Tablatures and chords are parodies/interpretations of the original songs. You may use it for private study, scholarship, research or language learning purposes only