» » »

Blue Collar Special, Waste My Time Tabs (ver.1)

Artists:  A B C D E F G H I J K L M N O P Q R S T U V W X Y Z # 

Waste My Time Tabs (ver.1)

Blue Collar Special Tabs
 Rating:
4/5 (4 votes)
Waste My Time lessons Tabs too difficult? Try these video lessons and learn fast
1
                |===========================|
|Waste My Time              |
|                           |
|Blue Collar Special        |
|===========================|

Standard Tuning (E,A,D,G,B,e)

A fantastic song by the world's greatest (but most unknown) band.
tabbing the guitar for it a LOT easier! :)
Please tell me what you think!


Intro x2
Guitar 1 (only play the first note at the start of the intro)
e|------------------------------------------------------------------------|
B|------------------------------------------------------------------------|
G|-----7--------7-7--7-7---7-7-7-7---7-7--77-7-9-11---12--11-12--11-9-----|
D|-----5--------5-5--5-5---5-5-5-5---5-5--55------------------------------|
A|------------------------------------------------------------------------|
E|------------------------------------------------------------------------|

Guitar 2
e|------------------------------------------------------------------------|
B|------------------------------------------------------------------------|
G|--------------7-------------------------4-------------------------------|
D|--------------7------------5------------4-----------5------7------------|
A|--------------5------------5------------2-----------5------7------------|
E|---------------------------3------------------------3------3------------|


Verse x2

Part 1
Guitars 1&2
e|------------------------------------------------------------------|
B|------------------------------------------------------------------|
G|--------7-------------------------4-------------------------------|
D|--------7------------5------------4-----------5------7------------|
A|--------5------------5------------2-----------5------7------------|
E|---------------------3------------------------3------3------------|
           I don't care what you think of me...

Part 2
Guitars 1&2
e|-------------------------------------------------------------------|
B|-------------------------------------------------------------------|
G|--7-7-7-7-7-7-7-7-4-4-4-4-4-4-4-4----------------------------------|
D|--7-7-7-7-7-7-7-7-4-4-4-4-4-4-4-4-7-7-7-7-7-7-7-7-5-5-5-5-5-5-5-5--|
A|--5-5-5-5-5-5-5-5-2-2-2-2-2-2-2-2-7-7-7-7-7-7-7-7-5-5-5-5-5-5-5-5--|
E|----------------------------------5-5-5-5-5-5-5-5-3-3-3--3-3--3-3--|
     Everything you say to me and everything you do...


Intro x2


Verse x2


Part 2 of the verse is played on Guitar 2 during the solo.
Haven't worked out the solo yet, but I'm working on it!!
            
Submit corrections

comments powered by Disqus
↑ Back to top | Blue Collar Special Tabs for Waste My Time. Lyrics for acoustic guitar and electric guitar. 1 Tablatures and chords are parodies/interpretations of the original songs. You may use it for private study, scholarship, research or language learning purposes only