>
 >
Take The Blame

Take The Blame Guitar Tabs

Blue Collar Special - Take The Blame chords, tabs, tablatures, lyrics

Guitar lessons | Add/correct | Request | Top 50 tabs Artists:  A B C D E F G H I J K L M N O P Q R S T U V W X Y Z 0-9

Take The Blame Guitar Tabs – Blue Collar Special

CD, Sheet music, Poster

Do you like Take The Blame? Share with your friends now
Tabs
-------------------------------------------------------------------------------
-------------------------------------------------------------------------------

This track is by far one of if not their best they've done so far! I've tabbed out
the two acoustic guitars in the intro and outro, and there are two electric guitars
in the verse, however, for the verse i've only done the one, playing the main rhythm
parts!  I'm pretty sure this is all correct, but if you have any corrections, please

Cheers, Mark!:D

Tuning: Standard (EADGBe)

        
 o    o 
           When you see this in the chorus, what i mean is that you repeat
 o    o    the chorus, and play the bit with "1.--" the first time and the
           the bit with "2.--" the second time! Just so there's no confusion!

Intro - Part 1
  Gtr. 1 (Acous)
  Rhy. Fig. 1
e|---------------------------------------------------------------------------|
B|---------------------------------------------------------------------------|
G|1----1-1--------------------------------4----4-4---------------------------|
D|2----2-2--6----6-6--7----7-7--4----4-4--2----2-2--6----6-6--7----7-7--9----|
A|2----2-2--6----6-6--7----7-7--4----4-4--2----2-2--6----6-6--7----7-7--9----|
E|----------4----4-4--5----5-5--2----2-2--0----0-0--4----4-4--5----5-5--7----|

e|---------------------------------------------------------------------------|
B|---------------------------------------------------------------------------|
G|-----9----9-9--------------------------------4----4-4----------------------|
D|9-9--9----9-9--6----6-6--7----7-7--4----4-4--2----2-2--6----6-6--7----7-7--|
A|9-9--7----7-7--6----6-6--7----7-7--4----4-4--2----2-2--6----6-6--7----7-7--|
E|7-7------------4----4-4--5----5-5--2----2-2--0----0-0--4----4-4--5----5-5--|
  
End Rhy. Fig. 1      |-Fill A-|
e|---------------------------------------------------------------------------|
B|---------------------------------------------------------------------------|
G|---------------------------------------------------------------------------|
D|9----9-9-------------------------------------------------------------------|
A|9----9-9-------------------------------------------------------------------|
E|7----7-7-----------2--2--1--1----------------------------------------------|

  Gtr. 2 (Acous)
  Riff A
e|----0-----------0-----------0-----------0------------0-----------0---------|
B|--0---0---0---0---0---0---0---0---0---0---0---0----0---0---0---0---0---0---|
G|1-------1---------------2-------2----------------------------1-------1---2-|
D|------------2-------2---------------4-------4----2-------2-----------------|
A|---------------------------------------------------------------------------|
E|---------------------------------------------------------------------------|

             End Riff A (x2)  
e|--0-----------0-----------------0-----------0-----------0-----------0------|
B|0---0---0---0---0---0---------0---0---0---0---0---0---0---0---0---0---0---0|
G|------2---4-------4--------------------------------------------------------|
D|----------------------------4-------4---4-------4---3-------3---3-------3--|
A|---------------------------------------------------------------------------|
E|---------------------------------------------------------------------------|

Intro - Part 2
  Elec. Gtr. 1                     Rhy. Fig. 2 End Rhy. Fig. 2 (x4)
e|---------------------------------------------------------------------------|
B|---------------------------------------------------------------------------|
G|--------------------------------------9-x-------9-x------------------------|
D|2--------------------------------9-x--7-x--7-x--7-x--9-9-9-9---------------|
A|2--2-2-2-2-2-2-2-2-2-2-2-2-2-2---7-x-------5-x-------7-7-7-7---------------|
E|0--0-0-0-0-0-0-0-0-0-0-0-0-0-0---------------------------------------------|
     PM------------------------|

Verse
  Rhy. Fig. 3                                  End Rhy. Fig. 3 (x2)
e|---------------------------------------------------------------------------|
B|---------------------------------------------------------------------------|
G|--------------------------------------9-x-------9-x------------------------|
D|9-9-9-9--------------------------9-x--7-x--7-x--7-x--9-9-9-9---------------|
A|7-7-7-7-7-7-7-7-7-7-7-7-9-9-9-9--7-x-------5-x-------7-7-7-7---------------|
E|--------5-5-5-5-5-5-5-5-7-7-7-7--------------------------------------------|

  Rhy. Fig. 4     End Rhy. Fig. 4 (x3)
e|---------------------------------------------------------------------------|
B|---------------------------------------------------------------------------|
G|---------------------------------------------------------------------------|
D|9-9-9-9--------------------------------------------------------------------|
A|7-7-7-7-7-7-7-7-7-7-7-7-9-9-9-9--------------------------------------------|
E|--------5-5-5-5-5-5-5-5-7-7-7-7--------------------------------------------|

Rhy. Fig. 2 (x2)
Rhy. Fig. 3 (x2)
Rhy. Fig. 4 (x3)
Rhy. Fig. 2

Chorus
e|-------------------------------------------------------------------------|
B|-o-----------------------------------------------------------------------|
G|-------------------------------------------------------------------------|
D|--7-7-7-7-7-7-7-7-7-7-7-7----------9-9-9-9-9-9-9-9-9-9-9-9---------------|
A|-o5-5-5-5-5-5-5-5-5-5-5-5-----7-7--7-7-7-7-7-7-7-7-7-7-7-7-----9-9-------|
E|------------------------------5-5------------------------------7-7-------|

                                                   1.------------     
e|-------------------------------------------------------------------------|
B|-------------------------------------------------------------------o-----|
G|-------------------------------------------------------------------------|
D|7-7-7-7-7-7-7-7-7-7-7-7--------------------------9-9-9-9-9-9-9-9---------|
A|5-5-5-5-5-5-5-5-5-5-5-5-----7-7--9-9-9-9-9-9-9-9-7-7-7-7-7-7-7-7---o-----|
E|----------------------------5-5--7-7-7-7-7-7-7-7-------------------------|
  
  2.------------
e|---------------------------------------------------------------------------|
B|---------------------------------------------------------------------------|
G|---------------------------------------------------------------------------|
D|---------------------------------------------------------------------------|
A|9-9-9-9-9-9-9-9------------------------------------------------------------|
E|7-7-7-7-7-7-7-7------------------------------------------------------------|


Rhy. Fig. 2 (x2)
Rhy. Fig. 3 (x2)
Rhy. Fig. 4 (x3)
Rhy. Fig. 2
Chorus

Solo
e|---------------------------------------------------------------------------|
B|9-9h10-12b-12b-12b--12b-12b-12-12b-12b-------------------------------------|
G|---------------------------------------------------------------------------|
D|---------------------------------------------------------------------------|
A|---------------------------------------------------------------------------|
E|---------------------------------------------------------------------------|

e|---------------------------------------------------------------------------|
B|---------------------------------------------------------------------------|
G|9-9-9-11-9-11/13~~~--9-9-9-11-9----------14-13----14-13-----14-13----14-13-|
D|--------------------------------11\9~~~--------14-------14--------14-------|
A|---------------------------------------------------------------------------|
E|---------------------------------------------------------------------------|

e|---------------------------------------------------------------------------|
B|---------------------------------------------------------------------------|
G|-------------11-----------------11-----------------------9-----------------|
D|14--14-13-14----14-13--14-13-14----14-13--14~~~----------9-----------------|
A|---------------------------------------------------------7-----------------|
E|---------------------------------------------------------------------------|

Outro
Riff A - Acous. Gtr. 1
Rhy. Fig. 1 - Acous. Gtr. 2

Elec. Gtr. 1 - plays this only twice at the start of the outro
e|---------------------------------------------------------------------------|
B|---------------------------------------------------------------------------|
G|---------------------------------------------------------------------------|
D|2--------2-----------------------------------------------------------------|
A|2--------2-----------------------------------------------------------------|
E|0--------0-----------------------------------------------------------------|


Acous. Gtr. 1 End on
e|---------------------------------------------------------------------------|
B|---------------------------------------------------------------------------|
G|---------------------------------------------------------------------------|
D|2--------------------------------------------------------------------------|
A|---------------------------------------------------------------------------|
E|---------------------------------------------------------------------------|

Acous. Gtr. 2 End on
e|---------------------------------------------------------------------------|
B|---------------------------------------------------------------------------|
G|4--------------------------------------------------------------------------|
D|2--------------------------------------------------------------------------|
A|2--------------------------------------------------------------------------|
E|0--------------------------------------------------------------------------|


| /  slide up
| \  slide down
| h  hammer-on
| ~  vibrato
| x  Mute note
| PM--| Palm Mute
===============================================================================





Comments


Popular Blue Collar Special tabs & chords
Dont Wait Bass Tabs
Dont Wait 2 Bass Tabs
Waste My Time Bass Tabs
Come Again Tabs
Dont Wait Tabs
Dont Wait 1 Tabs
Dont Wait 2 Tabs
Waste My Time Tabs


Song lyrics



↑ Back to top | Tablatures and chords are parodies/interpretations of the original songs. You may use it for private study, scholarship, research or language learning purposes only
© 2014 AZChords.com Contact us | Privacy policy | DMCA | Add/correct tabs | Request tabs | Top 50 tabs