» » »

Blue Collar Special, Come Again Tabs (ver.1)

Artists:  A B C D E F G H I J K L M N O P Q R S T U V W X Y Z # 

Come Again Tabs (ver.1)

Blue Collar Special Tabs
 Rating:
4/5 (4 votes)
Come Again lessons Tabs too difficult? Try these video lessons and learn fast
                |===================|
|Blue Collar Special|
|Come Again         |
|===================|

I think it's accurate, although the intro-solo is fast and confusing,
every time I make a breakthrough in how it's played, I'll update the tab.
As always, please tell me what you think!

Standard Tuning(EADGBe)

h  = hammer on
p  = pull off
/  = slide
\/ = tremolo picking while sliding
~  = vibrato/whammy

Enjoy! :)

Intro
Guitar 1   x4
e|----------------------------------|
B|----------------------------------|
G|--7-7-----5-5---------------------|
D|--7-7-----5-5-----5-5-----7-7-----|
A|--5-5-----3-3-----5-5-----7-7-----|
E|------------------3-3-----5-5-----|
These same chords are played throughout the song with variations of strumming.

Guitar 2
e|----------------------------------|
B|----------------------------------|
G|-----10--10--101010--10-----------|
D|---12--12--12------12-------------|
A|----------------------------------|
E|----------------------------------|
Play this part four times and then:

e|-----10/22-22-22-22-20-17-17-17-17/\/\/\/\/\/\/\/10---|
B|------------------------------------------------------|
G|------------------------------------------------------|
D|------------------------------------------------------|
A|------------------------------------------------------|
E|------------------------------------------------------|

Verse

Guitars 1&2  x4
e|----------------------------------|
B|----------------------------------|
G|--7-----5-5-5---------------------|
D|--7-----5-5-5-5-----7-7-7---------|
A|--5-----3-3-3-5-----7-7-7---------|
E|--------------3-----5-5-5---------|

At the end of the verse, listen very closely and you'll hear a slide. I think that's 
on bass, but just in case:
e|----------------------------------|
B|----------------------------------|
G|----------------------------------|
D|----------------------------------|
A|--12/\/\/\/\/\/\/5----------------|
E|----------------------------------|

Chorus
Guitars 1 & 2  x4
e|------------------------------------|
B|------------------------------------|
G|--7-7-7-7-5-5-5-5-------------------|
D|--7-7-7-7-5-5-5-5-5-5-5-5-7-7-7-7---|
A|--5-5-5-5-3-3-3-3-5-5-5-5-7-7-7-7---|
E|------------------3-3-3-3-5-5-5-5---|

Bridge
Guitars 1 & 2  x2
e|----------------------------------|
B|----------------------------------|
G|--7-----5-5-----------------------|
D|--7-----5-5----5-5-5-7-7----------|
A|--5-----3-3----5-5-5-7-7----------|
E|---------------3-3-3-5-5----------|

At the end of Verse 3, a D note is played with slight vibrato:
Guitar 2
e|------------------|
B|------------------|
G|-----7~~~~~-------|
D|------------------|
A|------------------|
E|------------------|


Outro/End of Song
Guitar 2
e|-------------------------|
B|-------------------------|
G|---7-----5--6--7---------|
D|---7-----5--6--7---------|
A|---5-----3--4--5---------|
E|-------------------------|

Song Arrangement:

Intro
  Verse 1 with slide at the end
Chorus 1
  Verse 2 with no slide
Chorus 2
  Bridge
Verse 3 with D note at the end
  Outro
            
Submit corrections

comments powered by Disqus
↑ Back to top | Blue Collar Special Tabs for Come Again. Lyrics for acoustic guitar and electric guitar. Tablatures and chords are parodies/interpretations of the original songs. You may use it for private study, scholarship, research or language learning purposes only