>
 >
Rock Me Baby

Rock Me Baby Guitar Tabs

Blue Cheer - Rock Me Baby chords, tabs, tablatures, lyrics

Guitar lessons | Add/correct | Request | Top 50 tabs Artists:  A B C D E F G H I J K L M N O P Q R S T U V W X Y Z 0-9

Rock Me Baby Guitar Tabs – Blue Cheer

CD, Sheet music, Poster

Do you like Rock Me Baby? Share with your friends now
Tabs
Standard tuning


Legend:

h - Hammer On
p - Pull Off
^ - Bend
^r - Bend and Release
~~ - Distortion/Let Ring

|---------------------------||--------12--10~~--------|
|---------------------------||------------------------|
|---------------------------||--12h14-----------------|
|------------12-------------||------------------------|
|------12h14----14----------||------------------------|
|--12--------------12-------||------------------------|
|
|
|
|---------------------------||------5--3~~------------|
|---------------------------||------------------------|
|---------------------------||--5h7-------------------|
|--------5------------------||------------------------|
|----5h7---7----------------||------------------------|
|--5---------5--------------||------------------------|
|
|
|
|
|--7-10---7-7\---------------------------------------------|
|---------8-8\----8-8--8-8---------------------------------|
|-----------------9-9--9-9----------------------12---------|
|-----------------------------------------12-14----14------|
|-----------------------------------12h14------------------|
|-----------------------------------------------------12---|



|-----------------|
|--7--7---7--7----|
|--8--8---8--8----|
|-----------------|
|-----------------|
|-----------------|



Solo (use heavy distortion):

|--------------------------------------------------------|
|--------------------------------------------------------|
|--------12--------12--------12----------12--14^~~~~-----|
|--12h14-----12h14-----12h14------12h14------------------|
|--------------------------------------------------------|
|--------------------------------------------------------|
|
|
|
|
|---------------------------------------------------|
|---------------------------------------------------|
|--14^~~---------------12h14---14^~~---15^----------|
|----------------12h14----------------------12------|
|----------12h14------------------------------------|
|---------------------------------------------------|
|
|
|
|-----------------------------15-12---------------------------|
|-------------------------------------------------------------|
|--------------12h14---14^~~--------12---14^r-12----12-14^~~--|
|--------12h14-----------------------------------14-----------|
|--12h14------------------------------------------------------|
|-------------------------------------------------------------|
|
|
|
|
|------------------10h12p10h12p10h12p10h12p10--12^---12^r-10---------------|
|------------------------------------------------------------12--10h12~~---|
|--14^r-12----12-----------------------------------------------------------|
|----------14--------------------------------------------------------------|
|--------------------------------------------------------------------------|
|--------------------------------------------------------------------------|
|
|
|
|
|---------------------------12---------------------------------------------|
|--------------------------------------------------------------------------|
|--14^r-12---------14^~~~------12--------12h14--14^~~~14^r--14-12-14-14^~~-|
|----------14-14-------------------12h14-----------------------------------|
|--------------------------------------------------------------------------|
|--------------------------------------------------------------------------|
|
|
|
|--------------------------------------------------------------------------|
|--12~~-13^-12-------------------------------------------------------------|
|-------------------------12--------------------12h14--14^~~--14^r-12------|
|-------------------12h14---14h12--------12h14-----------------------14-14-|
|---------------12h14---------------12h14----------------------------------|
|--------------------------------------------------------------------------|
|
|
|
|-------------------------------------------|
|-------------------------------------------|
|--12h14^~~-14^r-12-------------------------|
|-------------------14----------------------|
|-----------------------14-14---14-14^~~----|
|-------------------------------------------|







Again, use some really heavy distortion and listen to the song, it's not hard to play this. ;)


|--------------------------------------------------------------------------|
|--------------------------------------------------------------------------|
|---------------------------------------------------------------12-14-14~~-|
|-----12-14--------12-14------12-14------12-14---12-14---12-14-------------|
|--14-----------14---------14----------14------14------14------------------|
|--------------------------------------------------------------------------|
|
|
|--------------------------------------------------------------------|
|--------------------------------------------------------------------|
|---14^-14^--14^r-12----14^--12-14p12h14p12h14p12h14p12--14^r-12-----|
|--------------------14------------------------------------------14--|
|--------------------------------------------------------------------|
|--------------------------------------------------------------------|
|
|
|--------------------------------------------------------------------------|
|--------------------------------------------------------------------------|
|--------------------------------------------------------------------------|
|--12h14--12h14--12h14-----12-14^~~---------------------12-14-14^~~~-14-14-|
|-----------------------14-----------12h14--12h14-12h14--------------------|
|--------------------------------------------------------------------------|
|
|
|------------------------------------------------------------------------|
|----------------------------------15-12-15-17-15-17-17-15-17-17^--17^---|
|--12^r--12^r----------------12h14---------------------------------------|
|------------------------------------------------------------------------|
|--------------14--------------------------------------------------------|
|------------------------------------------------------------------------|
|------------------------------------------------------------------------|
|
|
|
|
|--------------------------------------------------------------------------|
|--------------------------------------------------------------------------|
|-------------------------------------------------------------------14^----|
|--14p12h14p12h14p12h14p12h14p12h14p12h14p12h14p12h14p12h14p12h14p12-------|
|--------------------------------------------------------------------------|
|--------------------------------------------------------------------------|
|
|
|
|--------------------------------------------------------------------------|
|--------------------------------------------------------------------------|
|--14^-14^-14^r--------------12h14---12h14----14~~~14^r12-----14^-14^------|
|----------------------12h14-------14------14-------------14---------12h14-|
|----------------12h14-----------------------------------------------------|
|--------------------------------------------------------------------------|
|
|
|--------------------------------------------------------------------------|
|--------------------------------------------------------------------------|
|--------------------------------------------------------------------------|
|--14p12h14p12h14p12h14p12h14p12h14p12h14p12h14p12h14p12h14p12h14p12-14~~--|
|--------------------------------------------------------------------------|
|--------------------------------------------------------------------------|
|
|
|
|-----------------------------------------------|
|--------------------------12^r-12^r-12^r-------|
|--------12-12-12-14^-14^-----------------------|
|--12h14------------------------------------14--|
|-----------------------------------------------|
|-----------------------------------------------|





Ending:

|--------------------------------------------------------|
|--------------------------------------------------------|
|--14^r-14^r-12---14^r-12----14^r-12----14^r-12----------|
|--------------14---------14---------14---------14-14~~--|
|--------------------------------------------------------|
|--------------------------------------------------------|
|
|
|
|-----------------|
|-----------------|
|-----------------|
|-----12-14~~-----|
|--14-------------|
|-----------------|




Hope you enjoy it, badass song by Blue Cheer. Please rate.





Comments


Popular Blue Cheer tabs & chords
Out Of Focus Bass Tabs
Summertime Blues Bass Tabs
Magnolia Caboose Baby Finger Tabs
Out Of Focus Tabs
Out Of Focus 1 Tabs
Parchment Farm Tabs
Second Time Around Tabs
Second Time Around 1 Tabs
Summertime Blues Tabs
The Hunter Tabs


Song lyrics



↑ Back to top | Tablatures and chords are parodies/interpretations of the original songs. You may use it for private study, scholarship, research or language learning purposes only
© 2014 AZChords.com Contact us | Privacy policy | DMCA | Add/correct tabs | Request tabs | Top 50 tabs