» » »

The Death Of Hope Tabs (ver.1)

Artists:  A B C D E F G H I J K L M N O P Q R S T U V W X Y Z # 

The Death Of Hope Tabs (ver.1)

Bloodsoaked
Rating:
0/5 (0 votes)

Tabs too difficult? Try these video lessons and learn fast.
                SONG NAME: The Death of Hope - Band Name: BLOODSOAKED




Tuning: D-G-C-F-A-D


(First Riff)
D|-------------------------------|
A|-------------------------------|
F|-------------------------------|
C|-6-3---------4-3-6-3---------4-|
G|-x-x--0-2-1--x-x-x-x--0-2-1--x-|
D|-4-1--0-2-1--2-1-4-1--0-2-1--2-|


(Second Riff Played 4 Times)
D|-------------------------------|
A|-------------------------------|
F|-------------------------------|
C|-----------------------------4-|
G|-----------------------------x-|
D|-110-1-0-1-0-1-0-110-1-0-1-0-2-|


(Third Riff Played 4 Times)
D|-------------------------------|
A|-------------------------------|
F|-------------------------------|
C|-----------------------------4-|
G|-----------------------------x-|
D|-100010001000100010001000100-2-|


(Fourth Riff Played 3 Times)
D|-------------------------------------------|
A|-------------------------------------------|
F|-------------------------------------------|
C|-4-------3---------4-------3---------------|
G|-x-------x---------x-------x-----0---3-2-1-|
D|-2-------1---------2-------1-----0---3-2-1-|

The song goes back into the Second Riff and then back into the First Riff, 
after that it will go into the Fifth Riff of the song.


(Fifth Riff Played 4 1/2 Times)
D|--------------------------------------------------|
A|--------------------------------------------------|
F|--------------------------------------------------|
C|---------------------4--------------------------3-|
G|-0-2-1---0-2-1-0-2---x------0-2-1---0-2-1-0-2---x-|
D|-0-2-1---0-2-1-0-2---2------0-2-1---0-2-1-0-2---1-|


(Sixth Riff Played 6 Times)
D|-----------------------------------------------------|
A|-----------------------------------------------------|
F|-----------------------------------------------------|
C|---------------------------------------------------4-|
G|-------------------------------------------0-2-1---x-|
D|-1111111111111111000022221111555555111111--0-2-1---2-|


Then back into the First Riff and then the Second and Third Riffs to end the song.
All the riffs to the song are here, just listen and you will be playing it in no time.

Any questions please contact me (see above).



| /  slide up
| \  slide down
| h  hammer-on
| p  pull-off
| ~  vibrato
| +  harmonic
| x  Mute note
            
Tabs too difficult? Try these video lessons and learn fast.




comments powered by Disqus
↑ Back to top | Tablatures and chords are parodies/interpretations of the original songs. You may use it for private study, scholarship, research or language learning purposes only