» » »

Rotting In Filth Tabs (ver.1)

Artists:  A B C D E F G H I J K L M N O P Q R S T U V W X Y Z # 

Rotting In Filth Tabs (ver.1)

Bloodsoaked
Rating:
0/5 (0 votes)

Hard to play? Try these video lessons and learn fast.
                SONG NAME: Rotting In Filth - Band Name: BLOODSOAKED




Tuning: D-G-C-F-A-D


(First Riff)
D|-----------------------------------------------------------------|
A|-----------------------------------------------------------------|
F|-----------------------------------------------------------------|
C|-----------2-2-2-2-2-2-2-2---------------------------------------|
G|-3-3-2---------------------1-1-1-1-------------------------------|
D|-1-1-0-----------------------------2-2-2-2-----------------------|

(End of First Riff)
D|------------------------|
A|------------------------|
F|------------------------|
C|------------------------|
G|--3-3-2-4-5-4-----------|
D|--1-1-0-2-3-2-----------|

(Second Riff where only the guitar is played)
D|---------------------------------------------------------------------------------|
A|---------------------------------------------------------------------------------|
F|---------------------------------------------------------------------------------|
C|---------------------------------------------------------------------------------|
G|---------------------------------------------------------------------------------|
D|-2-2-2-2-5-5-5-5-2-2-2-2-1-1-1-1-2-2-2-2-5-5-5-5-2-2-2-2-3-3-3-3-2-2-2-2-5-5-5-5-|

(Continue second riff and at the end is where the drums kick in)
D|---------------------------------------|
A|---------------------------------------|
F|---------------------------------------|
C|---------------------------------------|
D|-----------------4-4-4-4-3-3-3-3-------|
D|-2-2-2-2-1-1-1-1-2-2-2-2-1-1-1-1-------|

(Third Riff / The end of the 2d riff flows into the 3rd riff, listen to the song)
D|--------------------------------------------------------------------------|
A|--------------------------------------------------------------------------|
F|--------------------------------------------------------------------------|
C|--------------------------------------------------------------------------|
G|-2-2-2-2-3-3-3-3-5-5-5-5-4-4-4-4--7-7-7-7-7-7-7-7-10-10-10-10-10-10-10-10-|
D|-0-0-0-0-1-1-1-1-3-3-3-3-2-2-2-2------------------------------------------|

(Back into the 2nd riff)
D|-----------------------------------------------------------------|
A|-----------------------------------------------------------------|
F|-----------------------------------------------------------------|
C|-----------------------------------------------------------------|
G|-----------------------------------------------------------------|
D|-2-2-2-2-5-5-5-5-2-2-2-2-1-1-1-1-2-2-2-2-5-5-5-5-2-2-2-2-3-3-3-3-|

D|-----------------------------------------------------------------|
A|-----------------------------------------------------------------|
F|-----------------------------------------------------------------|
C|-----------------------------------------------------------------|
G|---------------------------------4-4-4-4-3-3-3-3-----------------|
D|-2-2-2-2-5-5-5-5-2-2-2-2-1-1-1-1-2-2-2-2-1-1-1-1-----------------|

(End of the 2nd riff when only the guitars are played)
D|---------------------------------------------------------------------|
A|---------------------------------------------------------------------|
F|---------------------------------------------------------------------|
C|---------------------------------------------------------------------|
G|-7-7-7-7-8-8-8-8-5-5-5-5-5-5-5-5-9-9-9-9-10-10-10-10-7-7-7-7-7-7-7-7-|
D|---------------------------------------------------------------------|

(Fourth Riff...right after the part above with just guitars)
D|--------------------------------------------------------------------------------------|
A|--------------------------------------------------------------------------------------|
F|--------------------------------------------------------------------------------------|
C|--------------------------------------------------------------------------------------|
G|-4-5-4-5-4-5-4-5--7-7-7-7-8-8-8-8-5-5-5-5-5-5-5-5-9-9-9-9-10-10-10-10-7-7-7-7-7-7-7-7-|
D|-2-3-2-3-2-3-2-3----------------------------------------------------------------------|

(4th time the fourth riff is played you add this to the end)
D|-------------------------------------------------------------------------------------|
A|-------------------------------------------------------------------------------------|
F|-------------------------------------------------------------------------------------|
C|-9-9-9-9-10-10-10-10-7-7-7-7-7-7-7-7-12-12-12-12-13-13-13-13-10-10-10-10-10-10-10-10-|
G|-------------------------------------------------------------------------------------|
D|-------------------------------------------------------------------------------------|

(Fifth Riff...Slow chunky part)
D|---------------------------------------------------------------------|
A|---------------------------------------------------------------------|
F|-----------------8-7-----6-5---------------------8-7-----------------|
C|-6-5-----8-7-----8-7-8-7-6-5-6-5-6-5-----8-7-----8-7-8-7-------------|
G|-6-5-6-5-8-7-8-7-----8-7-----6-5-6-5-5-5-8-7-8-7-----8-7-8-7-5-------|
D|-----6-5-----8-7---------------------6-6-----8-7---------8-7-5-------|

(Sixth Riff...Very slow chunky part)
D|---------------------------------------------------------------------|
A|---------------------------------------------------------------------|
F|-----------------4-3-----2-1---------------------4-3-----------------|
C|-2-1-----4-3-----4-3-4-3-2-1-2-1-2-1-----4-3-----4-3-4-3-------------|
G|-2-1-2-1-4-3-4-3-----4-3-----2-1-2-1-2-1-4-3-4-3-----4-3-4-3-1-------|
D|-----2-1-----4-3---------------------2-1-----4-3---------4-3-1-------|

(Seventh Riff...This is where only the guitar is played, played 6 times total)
D|------------------------------------------------------------------------|
A|------------------------------------------------------------------------|
F|------------------------------------------------------------------------|
C|-----------------------------6-6-6-6-----------------9-9-9-9-8-8-8-8----|
G|-7-7-7-7-10-10-10-10-8-8-8-8---------7-7-7-7-6-6-6-6--------------------|
D|------------------------------------------------------------------------|

(Seventh Riff continued)
D|------------------------------------------------------------------------|
A|------------------------------------------------------------------------|
F|------------------------------------------------------------------------|
C|-----------------------------------------4-4-4-4-3-3-3-3-3-3-3-3--------|
G|-6-6-6-6-----------------3-3-3-3-6-6-6-6--------------------------------|
D|---------4-4-4-4-5-5-5-5------------------------------------------------|

(Back into the first riff of the song)
D|-----------------------------------------------------------------|
A|-----------------------------------------------------------------|
F|-----------------------------------------------------------------|
C|-----------2-2-2-2-2-2-2-2---------------------------------------|
G|-3-3-2---------------------1-1-1-1-------------------------------|
D|-1-1-0-----------------------------3-3-3-3-----------------------|

D|------------------------|
A|------------------------|
F|------------------------|
C|------------------------|
G|--3-3-2-4-5-4-----------|
D|--1-1-0-2-3-2-----------|


(This is the last cords of the song)
D|------------------------|
A|------------------------|
F|------------------------|
C|------------------------|
G|--3-3-2-4-5-4-3-3-------|
D|--1-1-0-2-3-2-1-1-------|



| /  slide up
| \  slide down
| h  hammer-on
| p  pull-off
| ~  vibrato
| +  harmonic
| x  Mute note
            
Hard to play? Try these video lessons and learn fast. | Correct




comments powered by Disqus
↑ Back to top | Tablatures and chords are parodies/interpretations of the original songs. You may use it for private study, scholarship, research or language learning purposes only