» » »

Bloodsoaked, No God Tabs (ver.1)

Artists:  A B C D E F G H I J K L M N O P Q R S T U V W X Y Z # 

No God Tabs (ver.1)

Bloodsoaked Tabs
Rating:
0/5 (0 votes)
No God lessons Tabs too difficult? Try these video lessons and learn fast
                	     SONG NAME: No God - Band Name: Bloodsoaked



Tuning: D-G-C-F-A-D

(First Riff Played 4 Times)
D|--------------------------------------------------------------------------|
A|--------------------------------------------------------------------------|
F|--------------------------------------------------------------------------|
C|--------------------------------------------------------------------------|
G|-11111111111111111111-----------------------------------------------------|
D|---------------------2222222222222222000000000000000011111111333333332222-|

(End of First Riff)
D|---------|
A|---------|
F|---------|
C|--2------|
G|--2------|
D|--0------|

(Second Riff Played 3 Times)
D|---------------------------------|
A|---------------------------------|
F|---------------------------------|
C|---------------------------------|
G|-----222-111-----111---------444-|
D|-111---------444-----444-222-----|


(Fourth Time Second Riff is Played Ends Like This)
D|-------------------------------|
A|-------------------------------|
F|-------------------------------|
C|-------------------------------|
G|-----222-111-----111-------4-3-|
D|-111---------444-----444---2-1-|


(Third Riff played 9 times, first time with only one guitar)
D|------------------------------------------|
A|------------------------------------------|
F|------------------------------------------|
C|--------------------------------------5-4-|
G|------------------------------------------|
D|-2-1-0-3-2-0-2-1-0-3-2-0-2-1-0-3-2-0--3-2-|

(Third Riff built off the third riff)
D|----------|
A|----------|
F|----------|
C|-5-4--5-4-|
G|----------|
D|-3-2--3-2-|

(Fourth Riff played 3 times, first time one guitar is holding open D cord)
D|------------------------------------------------------------------------------------|
A|------------------------------------------------------------------------------------|
F|------------------------------------------------------------------------------------|
C|----------------------------------------------------------------------------------2-|
G|-33336666----------------33336666----------------33336666-------------------------2-|
D|---------4444555511112222--------4444555511112222--------444455551111222200000000-0-|

(Once both guitars come in on the 4th riff there is a harmony. The main guitar is playing
the riff above and the 2nd guitar is playing the harmony below)
D|------------------------------------------------------------------------------------|
A|------------------------------------------------------------------------------------|
F|------------------------------------------------------------------------------------|
C|-55558888----------------55558888----------------55558888-------------------------2-|
G|---------6666777733334444--------6666777733334444--------6666777733334444---------2-|
D|-------------------------------------------------------------------------00000000-0-|

(The very last time the 4th riff is played it ends with two open D cords)
D|------|
A|------|
F|------|
C|-2---2|
G|-2---2|
D|-0---0|

(Fifth Riff played 4 times)
D|-----------------------------------------------------------------|
A|-----------------------------------------------------------------|
F|-----------------------------------------------------------------|
C|-4-3-----6-5-----4-3-----6-5-----4-3-----6-5-----8-7-----9-8-----|
G|-4-3-4-3-6-5-6-5-4-3-4-3-6-5-6-5-4-3-4-3-6-5-6-5-8-7-8-7-9-8-9-8-|
D|-----4-3-----6-5-----4-3-----6-5-----4-3-----6-5-----8-7-----9-8-|

(The end of the the 5th riff ends like this on the 4th time)
D|------|
A|------|
F|------|
C|------|
G|-4---3|
D|-4---3|

The song goes back into the third riff for the rest of the song.  All the riif are here, 
listen to the song and it will come together.


| /  slide up
| \  slide down
| h  hammer-on
| p  pull-off
| ~  vibrato
| +  harmonic
| x  Mute note
            

comments powered by Disqus
↑ Back to top | Bloodsoaked Tabs for No God. Lyrics for acoustic guitar and electric guitar. Tablatures and chords are parodies/interpretations of the original songs. You may use it for private study, scholarship, research or language learning purposes only