» » »

Bloodsoaked, Infestation Tabs (ver.1)

Artists:  A B C D E F G H I J K L M N O P Q R S T U V W X Y Z # 

Infestation Tabs (ver.1)

Bloodsoaked Tabs
Rating:
0/5 (0 votes)
Infestation lessons Tabs too difficult? Try these video lessons and learn fast
                SONG NAME: Infestation - Band Name: BLOODSOAKED




Tuning: D-G-C-F-A-D


(First Riff Played 4 Times)
D|-----------------------------------------------------------------|
A|-----------------------------------------------------------------|
F|-----------------------------------------------------------------|
C|-----------------------------------------------------------------|
G|-8-5-----6-5-----8-5-----6-5-----8-5-----6-5-------------5-4-----|
D|-----8-5-----6-5-----8-5-----6-5-----8-5-----6-5-0-4-5-4-----5-4-|


(Last time First Riff is Played it ends like this)
D|-------------------------------------|
A|-------------------------------------|
F|-------------------------------------|
C|-----------------------------------2-|
G|---------3-2-------------2-1-------2-|
D|-0-2-3-2-----3-2-0-1-2-1-----2-1---0-|


(Second Riff Played 4 Times)
D|------------------------------------------------------------------------|
A|------------------------------------------------------------------------|
F|------------------------------------------------------------------------|
C|------------------------------------------------------------1-----3-----|
G|--------------0-1-2---------------0-1-2---------------0-1-2-1-2-1-3-4-3-|
D|-111111111111-0-1-2--111111111111-0-1-2--111111111111-0-1-2---2-1---4-3-|


(Third Riff Played 5 times)
D|-------------------------------------------------------------------|
A|-------------------------------------------------------------------|
F|-------------------------------------------------------------------|
C|--------------------------------------------------5555----7777-----|
G|-3333----5555----3333----5555----3333----5555---------4444----6666-|
D|-----2222----4444----2222----4444----2222----4444------------------|


(Fourth Riff Played 8 Times)
D|--------------------------------------|
A|--------------------------------------|
F|--------------------------------------|
C|--------------------------------------|
G|-2-1-0-2-1-0-2-1-2-1-0-2-1-0----------|
D|-3-2-0-3-2-0-3-2-3-2-0-3-2-0-22222222-|


(The last time the Fourth Riff is played it ends like this)
D|-----------------|
A|-----------------|
F|-----------------|
C|-----------------|
G|-2-1-0-2-1-0-2-1-|
D|-3-2-0-3-2-0-3-2-|


(Fifth Riff Played 5 times)
D|------------------------------||---------|
A|------------------------------||---------|
F|------------------------------||---------|
C|------------------------------||---------|
G|-6-3-----4-3-----6-3------4-3-||-2-3-4-3-|
D|-----6-3-----4-3-----6-3--2-1-||-0-1-2-1-|


(Last/End Riff)
D|-----------------------------------------------------------------|
A|-----------------------------------------------------------------|
F|-----------------------------------------------------------------|
C|-----------------------------------------------------------------|
G|-2-3-4-3-2-3-4-3-2-3-4-3-2-3-4-3-2-3-4-3-2-3-4-3-2-3-4-3-2-3-4-3-|
D|-0-1-2-1-0-1-2-1-0-1-2-1-0-1-2-1-0-1-2-1-0-1-2-1-0-1-2-1-0-1-2-1-|


All the riffs to the song are listed here, just listen
to the song and you should be playing it in no time.

Any questions please contact me.



| /  slide up
| \  slide down
| h  hammer-on
| p  pull-off
| ~  vibrato
| +  harmonic
| x  Mute note
            
Submit corrections

comments powered by Disqus
↑ Back to top | Bloodsoaked Tabs for Infestation. Lyrics for acoustic guitar and electric guitar. Tablatures and chords are parodies/interpretations of the original songs. You may use it for private study, scholarship, research or language learning purposes only