» » »

Existence Denied Tabs (ver.1)

Artists:  A B C D E F G H I J K L M N O P Q R S T U V W X Y Z # 

Existence Denied Tabs (ver.1)

Bloodsoaked
Rating:
0/5 (0 votes)

Hard to play? Try these video lessons and learn fast.
                	     SONG NAME: Existence Denied - Band Name: Bloodsoaked



Tuning: D-G-C-F-A-D



(First Riff)
D|---------------------------------------------------------------------------|
A|---------------------------------------------------------------------------|
F|-5----8----7----7-7-7----7-7-----------------------------------------------|
C|-5----8----7----7-7-7----7-7-----------------------------------------------|
G|-3----6----5----5-5-5----5-5-----------------------------------------------|
D|-3----6----5----5-5-5----5-5-----------------------------------------------|

(End of First Riff)
D|---------------------|
A|---------------------|
F|-5----2----3---------|
C|-5----2----3---------|
G|-3----0----1---------|
D|-3----0----1---------|

(Second Riff)
D|-----------------------------------------------------------------------------------|
A|-----------------------------------------------------------------------------------|
F|-5------------------------------------3--------------------------------------------|
C|-5------------------------------------3--------------------------------------------|
G|-3----3-3-3-3-3-3-3-3-2-2-2-2-2-2-2-2-1--------------------------------------------|
D|-3------------------------------------1----2-2-2-2-2-2-2-2-3-3-3-3-3-3-3-3-1-1-1-1-|

(Third Riff)
D|---------------------------------------------------------------------------------|
A|---------------------------------------------------------------------------------|
F|---------------------------------------------------------------------------------|
C|---------------------------------------------------------------------------------|
G|-4-3-0-2-1-0-3-2-4-3-0-2-1-0-3-2-4-3-0-2-1-0-3-2-4-4-4-4-4-4-4-4-3-3-3-3-3-3-3-3-|
D|-4-3-0-2-1-0-3-2-4-3-0-2-1-0-3-2-4-3-0-2-1-0-3-2---------------------------------|

(Third Riff second and fourth time played ends with this)
D|---------------------------------------------------------------------------|
A|---------------------------------------------------------------------------|
F|---------------------------------------------------------------------------|
C|---------------------------------------------------------------------------|
G|-4-4-4-4-4-4-4-4-3-3-3-3-3-3-3-3-------------------------------------------|
D|---------------------------------4-4-4-4-4-4-4-4-3-3-3-3-3-3-3-3-----------|

(Third Riff built off the thrid riff)
D|---------------------------------------------------------------------------|
A|---------------------------------------------------------------------------|
F|---------------------------------------------------------------------------|
C|---------------------------------------------------------------------------|
G|-4-4-4-4-4-4-4-4-3-3-3-3-3-3-3-3-6-6-6-6-6-6-6-6-5-5-5-5-5-5-5-5-----------|
D|---------------------------------------------------------------------------|

(The song goes back into the third riff and then back into the second riff, the
last time riff is played it ends like this
D|-------------------------------------|
A|-------------------------------------|
F|-------------------------------------|
C|-4-----------5---------------3-------|
G|-2-----------3---------------1-------|
D|-2-----------3---------------1-------|

(Fourth Riff, the really slow riff)
D|---------------------------------------------------------------------------|
A|---------------------------------------------------------------------------|
F|---------------------------------------------------------------------------|
C|-5---3-5---3---6-5-3-5---7---5-7---5---8-7-5-7---5---3-5---3---6-5-3-5-----|
G|-3---3-3---3---3-3-3-3---5---5-5---5---5-5-5-5---3---3-3---3---3-3-3-3-----|
D|-3---3-3---3---3-3-3-3---5---5-5---5---5-5-5-5---3---3-3---3---3-3-3-3-----|

(Fourth Riff Continued)
D|------------------------------------------------------------------------------|
A|------------------------------------------------------------------------------|
F|------------------------------------------------------------------------------|
C|-7---5-7---5--8-8-8-8-8-8-8-8-7-7-7-7-7-7-7-7-5-5-5-5-5-5-5-5-7-7-7-7-7-7-7-7-|
G|-5---5-5---5------------------------------------------------------------------|
D|-5---5-5---5------------------------------------------------------------------|

The last time the fourth riff is played it end like this)
D|----------------|
A|----------------|
F|----------------|
C|-8--7--5--7-----|
G|-6--5--3--5-----|
D|-6--5--3--5-----|

The song goes back into the thrid riff for the rest of the song.  All the riif
are here, just listen to the song and it will come together.




| /  slide up
| \  slide down
| h  hammer-on
| p  pull-off
| ~  vibrato
| +  harmonic
| x  Mute note
            
Hard to play? Try these video lessons and learn fast. | Correct




comments powered by Disqus
↑ Back to top | Tablatures and chords are parodies/interpretations of the original songs. You may use it for private study, scholarship, research or language learning purposes only