» » »

Blind Date Beating Tabs (ver.1)

Artists:  A B C D E F G H I J K L M N O P Q R S T U V W X Y Z # 

Blind Date Beating Tabs (ver.1)

Bloodsoaked
Rating:
0/5 (0 votes)

Hard to play? Try these video lessons and learn fast.
                SONG NAME: Blind Date Beating - Band Name: BLOODSOAKED




Tuning: D-G-C-F-A-D


(First Riff Played 2 Times)
D|----------------------------------------|
A|----------------------------------------|
F|----------------------------------------|
C|---8-7---7-6---6---5-4---4-3---3----2---|
G|-7-6-5-7-5-4-6-4-5-3-2-4-2-1-3-1----2---|
D|-5-----5-----4---3-----2-----1------0---|


(Second Riff Played 4 Times)
D|--------------------------|
A|--------------------------|
F|--------------------------|
C|------------------4-5-4-3-|
G|------------------2-3-2-1-|
D|-3322332233223322---------|


(Third Riff Played 4 Times)
D|--------------------------|
A|--------------------------|
F|--------------------------|
C|------------------7-8-7-6-|
G|------------------5-6-5-4-|
D|-6655665566556655---------|


(Fourth Riff Played 4 Times, This is the same as the Second Riff)
D|--------------------------|
A|--------------------------|
F|--------------------------|
C|------------------4-5-4-3-|
G|------------------2-3-2-1-|
D|-3322332233223322---------|


(Fifth Riff Played 4 Times, This is the same as the Third Riff)
D|--------------------------|
A|--------------------------|
F|--------------------------|
C|------------------7-8-7-6-|
G|------------------5-6-5-4-|
D|-6655665566556655---------|


(Last Riff Played 8 Times)
D|----------------------------|
A|----------------------------|
F|----------------------------|
C|-3-------3-------3----------|
G|-2---0---2---0---2---0---4--|
D|-----0-------0-------0---3--|


All the riffs to the song are listed here, just listen
to the song and you should be playing it in no time.

Any questions please contact me.



| /  slide up
| \  slide down
| h  hammer-on
| p  pull-off
| ~  vibrato
| +  harmonic
| x  Mute note
            
Hard to play? Try these video lessons and learn fast. | Correct




comments powered by Disqus
↑ Back to top | Tablatures and chords are parodies/interpretations of the original songs. You may use it for private study, scholarship, research or language learning purposes only