>
 >
Postar

Postar Guitar Tabs

Block Out - Postar chords, tabs, tablatures, lyrics

Guitar lessons | Add/correct | Request | Top 50 tabs Artists:  A B C D E F G H I J K L M N O P Q R S T U V W X Y Z 0-9

Postar Guitar Tabs – Block Out

CD, Sheet music, Poster

Do you like Postar? Share with your friends now
Tabs
Uvod i kraj:
E|----------------|----------------|----------------|----------------|
H|8---X---X---7---|(7)-------------|----------------|----------------|
G|5---X---X---5---|(5)-------------|----7b8r7---5---|7---5-----------|
D|7---X---X---7---|(7)-------------|----------------|--------5---7---|
A|----------------|----------------|----------------|----------------|
E|----------------|----------------|----------------|----------------|
 /-----------------------------Ponovi 2X-----------------------------/

  Strofa:
C
Nekad se znalo sve
                                  Am6
Ja krenem ulicom a deca mi trce u susret
C
I sad trce al' beze od mene
                           Am6
I vicu mama ne otvaraj ide postar.

  Prelaz 1:
G                      F
Ko da je proslo od tad dvesta godina
Bilo je kafa dobar dan i rakija
Dve crvene od svake penzije za srecu
Am6            Am6
I srecan rad domacine

Sad hodam ko kreten sam
Ljudi okrecu glavu a poznaju me svi
Juce su me napali i oteli torbu
Punu racuna za struju

  Prelaz 2:
Fis                G
Necu da delim deci pozive u rat
Ja zvonim zvonim niko mi ne otvara
Kod kuce zena sa mnom ne razgovara
Hm
Ne mogu, ne mogu, ne mogu, ne mogu

  Refren:
B                     Am6
Ne mogu vise da budem postar
Ne mogu vise da budem postar

  Prelaz 3:
  C                                 C
E|----------------|----------------|----------------|----------------|\
H|----------------|----------------|----------------|----------------||
G|------------7---|----------------|------------7---|----------------||
D|------4---------|----------------|------4---------|----------------||
A|3---------------|----------------|3---------------|----------------||
E|----------------|----------------|----------------|----------------||
  Am6                               Am6                               |2X
E|----------------|----5-----------|------5---------|----------------||
H|----------------|----------------|------5---5-4---|(4)-------------||
G|7b----7b--------|------5-7b------|5h7-------------|----------------||
D|----------------|----------------|----------------|----------------||
A|----------------|----------------|----------------|----------------||
E|----------------|----------------|----------------|----------------|/
  Fis                               G
E|----------------|----------------|----------------|----------------|\
H|----------------|----------------|----------------|----------------||
G|----------------|----------------|----------------|----------------||3X
D|------4-----3---|----------------|------5-----4---|--------5h7p5---||
A|----------------|----4---3---4---|----------------|----5-----------||
E|2---------------|----------------|3---------------|----------------|/

E|----------------|----------------|----------------|----------------|
H|----------------|----------------|----------------|----------------|
G|----------------|----------------|----------------|----------------|
D|4-----4-----4---|5-----4-----2---|4-----4-----4---|5-----4-----2---|
A|2-----2-----2---|3-----2-----0---|2-----2-----2---|3-----2-----0---|
E|----------------|----------------|----------------|----------------|

  Ponovi refren

Proslo je dosta godina
I ja konacno shvatam sta se desilo
Bio sam strasno glup
Al' i ja danas uspesno bezim od svog postara

Nova je godina ja nemam cestitke    \
Telegram saucesca sitne penzije     |{Ovaj deo je kao prelaz 1}
Ja sam ko gavran koji doziva nevolje/

Strah me svi imaju pse - {Ovaj stih je kao treci deo prelaza 3}

  {Ponovi prelaz 2, refren}

  Korisceni akordi:
C  -8 10 10 9 8 8
Am6-577575
G  -355433
F  -133211
Fis-244322
Hm -799777
B  -688766





Comments


Popular Block Out tabs & chords
Armatura Tabs
Beltaine Tabs
Deponija Tabs
Neki Moji Drugovi Tabs
Raskorak Tabs
San Koji Srecan Sanjas Sam Tabs


Song lyrics



↑ Back to top | Tablatures and chords are parodies/interpretations of the original songs. You may use it for private study, scholarship, research or language learning purposes only
© 2014 AZChords.com Contact us | Privacy policy | DMCA | Add/correct tabs | Request tabs | Top 50 tabs