» » »

Deponija Tabs (ver.1)

Artists:  A B C D E F G H I J K L M N O P Q R S T U V W X Y Z # 

Deponija Tabs (ver.1)

Block Out
Rating:
0/5 (0 votes)

Hard to play? Try these video lessons and learn fast.
                Tema 1:
  A                A
E|5---5-------3---|3---------------|
H|------5---5-----|--3---3-3p2-----|
G|----------------|----------------|
D|----------------|----------------|
A|----------------|----------------|
E|----------------|----------------|

  Tema 2:
  C                C                C                    C   H   B
E|----------------|----------------|----------------|----------------|
H|----------------|----------------|----------------|----------------|
G|5-----------3---|(3)-------------|5-----------3---|----------------|
D|------5---------|----------------|------5---------|----5---4---3---|
A|----------------|----------------|----------------|----3---2---1---|
E|----------------|----------------|----------------|----------------|

  Strofa:
  Am               Am               Cm               Cm
E|5---------------|(5)-------------|8---------------|(8)-------------|
H|5---------------|(5)-------------|8---------------|(8)-------------|
G|5---------------|(5)-------------|8---------------|(8)-------------|
D|7---------------|(7)-------------|10--------------|(10)------------|
A|7---------------|(7)-------------|10--------------|(10)------------|
E|5---------------|(5)-------------|8---------------|(8)-------------|
     Prijatan dan                      na prigradskom djubristu...

  Prelaz 1:
  A                A                C                C
E|----------------|----------------|----------------|----------------|
H|------------0---|----------------|------------3---|----------------|
G|--------2-------|----2-----------|--------5-------|----5-----------|
D|----2-----------|--------2-------|----5-----------|----------------|
A|0---------------|----------------|3---------------|----------------|
E|----------------|----------------|----------------|----------------|
  A                A                C                C
E|----------------|----------------|8---------------|(8)-------------|
H|------------0---|----------------|8---------------|(8)-------------|
G|--------2-------|----2-----------|8---------------|(8)-------------|
D|----2-----------|--------2-------|10--------------|(8)-------------|
A|0---------------|----------------|10--------------|(8)-------------|
E|----------------|----------------|8---------------|(8)-------------|

  Refren:
  A                A           C    C                C
E|----------------|----------------|----------------|----------------|
H|----------------|----------------|----------------|----------------|
G|----------------|----------------|----------------|----------------|
D|2-------2-------|2-------2---5---|(5)-----5-------|5-------5-------|
A|0-------0-------|0-------0---3---|(3)-----3-------|3-------3-------|
E|----------------|----------------|----------------|----------------|
    Zaroni u vodu                   i pogledaj gore...

  Prelaz 2:
  A                A                A                A
E|----------------|----------------|----------------|----------------|
H|----------------|----1---0-------|----------------|----1---0-------|
G|2-----0---------|------------0---|2-----0---------|------------0---|
D|------------2---|----------------|------------2---|----------------|
A|----------------|----------------|----------------|----------------|
E|----------------|----------------|----------------|----------------|
  G                G                F                F
E|----------------|----------------|----------------|----------------|
H|----------------|----------------|----------------|----------------|
G|0---------------|----0-----------|----------------|----------------|
D|------4---------|--------4-------|3-----2---------|------------2---|
A|------------5---|------------5---|------------3---|--2-----3-------|
E|----------------|----------------|----------------|----------------|
  A                A                A                A
E|----------------|----------------|----------------|----------------|
H|----------------|----1---0-------|----------------|----1---0-------|
G|2-----0---------|------------0---|2-----0---------|------------0---|
D|------------2---|----------------|------------2---|----------------|
A|----------------|----------------|----------------|----------------|
E|----------------|----------------|----------------|----------------|
  G#               G#               G                G 
E|----------------|----------------|----------------|----------------|
H|----------------|----------------|----------------|----------------|
G|1-----0---------|----1---0-------|----------------|----------------|
D|------------1---|------------1---|5-----4---------|----------------|
A|----------------|----------------|------------5---|--4-----5-------|
E|----------------|----------------|----------------|----------------|

  Solo: D(riff)

  Kraj:
  A      A             C  C         D
E|----|*|----------------|----------------|
H|----|*|----------------|----------------|
G|----|*|----------------|----------------|
D|2---|*|2-------------5-|(5)-------7-----|
A|0---|*|0-------------3-|(3)-------5-----|
E|----|*|----------------|----------------|

Prijatan dan na prigradskom djubristu
Cigani traze veliki plen
Veselo tinja na prigradskom djubristu
Uslovi za rad su idealni

Prijatan dan na prigradskom djubristu
Reka je niska jos koji dan
Kada se digne, odnece dalje
Prigradsko djubre ide u grad

Kisni dan na prigradskom djubristu
Nikoga nema, kerovi laju
Dovukli su les mlade zene i pobegli
Odnece ga voda ako stigne pre kopaca

Prijatan dan na prigradskom djubristu
Kiseli miris privlaci ptice
Ovo je raj za ozbiljne razgovore
Ovo je hektar novih ideja
            
Hard to play? Try these video lessons and learn fast. | Correct




comments powered by Disqus
↑ Back to top | Tablatures and chords are parodies/interpretations of the original songs. You may use it for private study, scholarship, research or language learning purposes only