» » »

Block Out, Beltaine Tabs (ver.1)

Artists:  A B C D E F G H I J K L M N O P Q R S T U V W X Y Z # 

Beltaine Tabs (ver.1)

Block Out Tabs
 Rating:
3.4/5 (5 votes)
Beltaine lessons Tabs too difficult? Try these video lessons and learn fast
                Uvod :
  G                Dm7              Cmaj7            Cmaj7
E|----------3-----|----------5-----|-------------3--|----3-----------|
H|----------3-----|----------6-----|------------5---|-----5----------|
G|----------4-----|----------5-----|-----------4----|------4---------|
D|----------------|------7---------|----------5-----|----------------|
A|----------------|5-------------2-|3---------------|----------------|
E|3---------------|----------------|----------------|----------------|

  Strofa :
  G                Dsus2            Em      Dsus2    C       C/H
E|--------3-------|------0-----0---|--0-------0-----|--0-------0-----|
H|----------3---3-|--------3-----3-|----0-------3---|----1-------1---|
G|------0-----0---|----2-----2-----|------0-------2-|------0-------0-|
D|----0-----------|0---------------|--------0-------|----------------|
A|----------------|----------------|----------------|3-------2-------|
E|3---------------|----------------|0---------------|----------------|

  Am               Am               Dsus4            D
E|----------------|--------0-------|------3---------|------2---------|
H|-----0h1p0------|----------1-----|------------3---|----3-------3---|
G|-----------2----|------2-----2---|----2-----2---2-|--2-------2---2-|
D|----2--------2--|----2---------2-|0---------------|0---------------|
A|0--------------0|0---------------|----------------|----------------|
E|----------------|----------------|----------------|----------------|

  Solo :
  G                Dm7              Cmaj7            Cmaj7
E|----------------|----------------|---
            
Submit corrections

comments powered by Disqus
↑ Back to top | Block Out Tabs for Beltaine. Lyrics for acoustic guitar and electric guitar. Tablatures and chords are parodies/interpretations of the original songs. You may use it for private study, scholarship, research or language learning purposes only