» » »

Blitzen Trapper, Sadie Tabs (ver.1)

Artists:  A B C D E F G H I J K L M N O P Q R S T U V W X Y Z # 

Sadie Tabs (ver.1)

Blitzen Trapper Tabs
 Rating:
4/5 (4 votes)
Sadie lessons Tabs too difficult? Try these video lessons and learn fast
                

Tuning: Standard EADGBe


Chord reference:

    G   C   A7  F   C*  Eb  Bb  Fm  Bm7 E   D  C/B  D7
e|--3---0---0---1-------6-------1---2---0---2---0---2---|
B|--0---1---2---1---1---4---6---1---3---0---3---1---1---|
G|--0---0---0---2---0---0---7---1---2---1---2---0---2---|
D|--0---2---2---3---2---5---8---3---4---2---0---0---0---|
A|--2---3---0---3---3---6---8---3---2---2-------2---x---|
E|--3---3-------1---0-----------1-------0-----------2---|

G                C
Sadie, make her stay

   G                 C
If only for another day

G                     C
Shoulder blades and sunlight

   G               C
It never seems to feel right

    A7         C                   G        C
Cuz Sadie..... I..... I can never change yeah

            G
I can never change

       F               C*
For to change is to allow the plow

   Eb            Bb                 Fm          C
To rearrange the wreckage of our hearrrrr--earrrrts

    Eb    Bb     C
Our heeeeeaaaaaaarts

---

G                   C
Sadie, what's the score?

G                   C
Ride it above the door

G               C
Sadness rides along

    G                      C
The road we're travelling on

    A7         C                   G        C
Cuz Sadie..... I..... I can never change yeah

              G        C
I can never change, yeah

              G
I can never change


Guitar riff:
e|------------------------|
B|------------------------|
G|------------------------|
D|------------------------|
A|-------------0-1-2------|
E|-3-2-3-2-3-4------------|

---

   Bm7              E
So take your own advice

             C                    D                   G     G7
You'd better think twice when you find your love is gone

    Bm7               E  
And like the sun it waits for none

  C                   D              G   
I know it's true, but I don't have a clue

   G7                  C   C/B A7      D       D7
Of what you want me to do, ohh-ohhh

---
   
   G              C
So Sadie, make a stand

   G                C
If only for another weekend

    G                     C
The stage is swept, the prop's all gone

        G                               C
And I'm left here with nothing but this cheap love song

    A7         C                   G         C
Cuz Sadie..... I..... I can never change, yeah

              G        C
I can never change, yeah

              G        C
I can never change, yeah

              G        C
I can never change, yeah

Yeah


Guitar solo:

         G                                  C
e|-----|----------------|-----------------|-----8------10------|
B|-----|----------------|---------8b10-8--|--------------------|
G|-----|----------------|-----------------|-7s9---9s10----10s12|
D|-----|-------------5--|7b9r7-5----------|--------------------|
A|-----|-----5---5-7---7|-----------------|--------------------|
E|-10\-|-5s7---7--------|-----------------|--------------------|

  
e|12--10b12r10---------------|-----3-----1-----|3-----5-----7s5~~------|
B|-------------10b12r10--8\--|-----------------|-----------------------|
G|---------------------------|-2s4---4s2---2s4-|--4s5---5s7------------|
D|---------------------------|-----------------|-----------------------|
A|---------------------------|-----------------|-----------------------|
E|---------------------------|-----------------|-----------------------|

---

       F               C*
For to change is to allow the plow

   Eb            Bb                 Fm          C
To rearrange the wreckage of our hearrrrr--earrrrts

    Eb    Bb     C
Our heeeeeaaaaaaarts

----

Last 3 chords:

G         F            C


Notation Legend:

\ = slide down
s = slide to
b = bend
r = release
~ = vibrato
            
Submit corrections

comments powered by Disqus
↑ Back to top | Blitzen Trapper Tabs for Sadie. Lyrics for acoustic guitar and electric guitar. Tablatures and chords are parodies/interpretations of the original songs. You may use it for private study, scholarship, research or language learning purposes only