>
 >
Echo Always On Easy Con

Echo Always On Easy Con Guitar Tabs

Blitzen Trapper - Echo Always On Easy Con chords, tabs, tablatures, lyrics

Guitar lessons | Add/correct | Request | Top 50 tabs Artists:  A B C D E F G H I J K L M N O P Q R S T U V W X Y Z 0-9

Echo Always On Easy Con Guitar Tabs – Blitzen Trapper

CD, Sheet music, Poster

Do you like Echo Always On Easy Con? Share with your friends now
Tabs


Tuning: Standard EADGBe


(Piano chords transcribed for guitar) REFERENCE CHART:

   Gm11 Dm  Bb  F   C   E   A   D   G   Gm  C/E  D7 F/A  G7  A7
e|------1-------1---0---0---0---2-------3--------2---0---3---0---|
B|--1---3---3---1---1---0---2---3---3---3---1----1---1---3---2---|
G|--3---2---3---2---0---1---2---2---0---3---0----2---2---4---0---|
D|--0---0---3---3---2---2---2---0---0---5---2----0---3---3---2---|
A|--x-------1---3---3---2---0-------x---5---3----x---0---5---0---|
E|--3-----------1---3---0-----------3---3---0----2-------3-------|

------------
PART I: ECHO
------------

Gm11                 Dm
  Did I ask you to call me darlin?

       Bb         F        C
Got no time for a better end

E         A           D         G
  I could come around Thursday, maybe

      Bb                F               C
But I know you're gonna be with your friends

Gm                      Dm       C              F
  Cuz everyday's like a roof top catching the sun

       C/E        D7
And if no one is watching

          Gm        F      C
Does our love leave any trace?

        Gm    F       C
Just an echo out in space

       Gm11                     F   Dm    Bb  F/A  G7
Yeahhhh

C  F  Bb       A7         D

----

NEXT VERSE (follows same pattern):

If you knew what a fool I've been
You'd strike a match for every day that's been lost
What I wouldn't give to see you make a living
Breaking even or just counting the cost
Cuz everyday's like a newborn still as the sun
And if no one is watching
Does our love leave any trace?
Just an echo out in space
Just a broke down empty place
Yeah....(linger on Gm11 till song breaks down)

------------------
PART II: ALWAYS ON
------------------

Take some acid, clang on a wind chime and re-route the mic
through a dying crab, back through itself again, then out
through an old shoe to get that "oaky timbre"
[acid optional]

------------------
PART III: EASY CON
------------------

Swell the volume on each one of these notes:

e|---------------12---------------------------------------------------|
B|-15------13h15----13---------12-----12-13--------15-----------------|
G|---------------------14-----------14------14------------------------|
D|--------------------------------------------------------------------|
A|--------------------------------------------------------------------|
E|--------------------------------------------------------------------|

e|-19-19-19p17--19-17----------------------------------------|
B|--------------------17--17-17h18-18-18h20-17-17------------|
G|------------------------------------------------17-17--17--|
D|-----------------------------------------------------------|
A|-----------------------------------------------------------|
E|-----------------------------------------------------------|

Play around with those last 2 riffs until fade out/get funky

************************************

| /   slide up
| \   slide down
| h   hammer-on
| p   pull-off
| ~   vibrato
| +   harmonic
| x   Mute note
| b   Bend
| pb  Pre-bend
| br  Bend release
| pbr Pre-bend release
| brb Bend release bend

************************************





Comments


Popular Blitzen Trapper tabs & chords
Black River Killer Chords
Fletcher Chords
Furr Chords
Furr 3 Chords
Furr 4 Chords
Heaven And Earth Chords
The Man Who Would Speak True Chords
Black River Killer Intro Tabs
Booksmart Baby Tabs
Black River Killer Ukulele


Song lyrics



↑ Back to top | Tablatures and chords are parodies/interpretations of the original songs. You may use it for private study, scholarship, research or language learning purposes only
© 2014 AZChords.com Contact us | Privacy policy | DMCA | Add/correct tabs | Request tabs | Top 50 tabs