» » »

Blitzen Trapper, Booksmart Baby Tabs (ver.1)

Artists:  A B C D E F G H I J K L M N O P Q R S T U V W X Y Z # 

Booksmart Baby Tabs (ver.1)

Blitzen Trapper Tabs
 Rating:
4/5 (4 votes)
Booksmart Baby lessons Tabs too difficult? Try these video lessons and learn fast
1
                
Standard tuning
Key of B
Capo on 4
~105 BPM

Intro (2x)

|----------------------------------3--3-3-3-------3--3-3-3---|
|------------------------0-----0---3--3-3-3-------3--3-3-3---|
|---------0-----0------0-----0-----0--0-0-0-------0--0-0-0---|
|-------0-----0--------------------2--2-2-2-------2--2-2-2---|
|--0h3------2-----0h3------2-----0-0--0-0-0-----0-0--0-0-0---|
|------------------------------------------------------------|

Verse

Oh my, razor lakin time
|----------------------------------3--3-3-3-------3--3-3-3---|
|------------------------0-----0---3--3-3-3-------3--3-3-3---|
|---------0-----0------0-----0-----0--0-0-0-------0--0-0-0---|
|-------0-----0--------------------2--2-2-2-------2--2-2-2---|
|--0h3------2-----0h3------2-----0-0--0-0-0-----0-0--0-0-0---|
|------------------------------------------------------------|

Burnt hills, beautiful and mine
|----------------------------------3--3-3-3-------3--3-3-3--|
|------------------------0-----0---3--3-3-3-------3--3-3-3--|
|---------0-----0------0-----0-----0--0-0-0-------0--0-0-0--|
|-------0-----0--------------------2--2-2-2-------2--2-2-2--|
|--0h3------2-----0h3------2-----0-0--0-0-0-----0-0--0-0-0--|
|-----------------------------------------------------------|

Oh my, maybe booksmart baby

|---0--0-0-0------0-0----0-0----0---0-0-0-----3---3-3-3-----|
|---0--0-0-0------1-1----1-1----1---1-1-1-----2---2-2-2-----|
|---0--0-0-0------0-0----0-0----2---2-2-2-----3---3-3-3-----|
|---2--2-2-2------2-2----0-0----2---2-2-2---0-0---0-0-0-----|
|---2--2-2-2---3--3-3--2-2-2--0-0---0-0-0-------------------|
|-0-0--0-0-0------------------------------------------------|


Mine, deep in the dark, or not

|-----3-3------3-3----0---0-0-0----0-0----0--0--0-0-0-----0-0--------|
|-----3-3------3-3----1---1-1-1----1-1----1--0--0-0-0-----0-0------0-|
|-----0-0------0-0----0---0-0-0----0-0----2--2--2-2-2-----0-0-0h2h4--|
|-----0-0---0--0-0----2---2-2-2----0-0----2--0--0-0-0-----2-2--------|
|-----2-2------2-2--3-3---3-3-3--2-2-2--0-0--0--0-0-0-----2-2--------|
|--3--3-3------3-3---------------------------2--2-2-2---0-0-0--------|


|----------------------------------3--3-3-3-------3------------------|
|------------------------0-----0---3--3-3-3-------3-------0----------|
|---------0-----0------0-----0-----0--0-0-0-------0--0h2h4-----------|
|-------0-----0--------------------2--2-2-2-------2------------------|
|--0h3------2-----0h3------2-----0-0--0-0-0-----0-0------------------|
|--------------------------------------------------------------------|

|----------------------------------3--3-3-3-------3--3-3-3-----------|
|------------------------0-----0---3--3-3-3-------3--3-3-3-----------|
|---------0-----0------0-----0-----0--0-0-0-------0--0-0-0-----------|
|-------0-----0--------------------2--2-2-2-------2--2-2-2-----------|
|--0h3------2-----0h3------2-----0-0--0-0-0-----0-0--0-0-0-----------|
|--------------------------------------------------------------------|


Verse 2

Oh I, dragon drinking time

|----------------------------------3--3-3-3-------3--3-3-3-----------|
|------------------------0-----0---3--3-3-3-------3--3-3-3-----------|
|---------0-----0------0-----0-----0--0-0-0-------0--0-0-0-----------|
|-------0-----0--------------------2--2-2-2-------2--2-2-2-----------|
|--0h3------2-----0h3------2-----0-0--0-0-0-----0-0--0-0-0-----------|
|--------------------------------------------------------------------|


Someday, youll be beautiful

|----------------------------------3--3-3-3-------3--3-3-3-----------|
|------------------------0-----0---3--3-3-3-------3--3-3-3-----------|
|---------0-----0------0-----0-----0--0-0-0-------0--0-0-0-----------|
|-------0-----0--------------------2--2-2-2-------2--2-2-2-----------|
|--0h3------2-----0h3------2-----0-0--0-0-0-----0-0--0-0-0-----------|
|--------------------------------------------------------------------|

and mine, maybe ya paw pulled stakes to keep you

|---0--0-0-0------0-0----0-0----0---0-0-0-----3---3-3-3-----|
|---0--0-0-0------1-1----1-1----1---1-1-1-----2---2-2-2-----|
|---0--0-0-0------0-0----0-0----2---2-2-2-----3---3-3-3-----|
|---2--2-2-2------2-2----0-0----2---2-2-2---0-0---0-0-0-----|
|---2--2-2-2---3--3-3--2-2-2--0-0---0-0-0-------------------|
|-0-0--0-0-0------------------------------------------------|


clear and clean

|-----3-3------3-3----0---0-0-0----0-0----0--0--0-0-0-----0-0--------|
|-----3-3------3-3----1---1-1-1----1-1----1--0--0-0-0-----0-0------0-|
|-----0-0------0-0----0---0-0-0----0-0----2--2--2-2-2-----0-0-0h2h4--|
|-----0-0---0--0-0----2---2-2-2----0-0----2--0--0-0-0-----2-2--------|
|-----2-2------2-2--3-3---3-3-3--2-2-2--0-0--0--0-0-0-----2-2--------|
|--3--3-3------3-3---------------------------2--2-2-2---0-0-0--------|


|----------------------------------3--3-3-3-------3------------------|
|------------------------0-----0---3--3-3-3-------3-------0----------|
|---------0-----0------0-----0-----0--0-0-0-------0--0h2h4-----------|
|-------0-----0--------------------2--2-2-2-------2------------------|
|--0h3------2-----0h3------2-----0-0--0-0-0-----0-0------------------|
|--------------------------------------------------------------------|

|----------------------------------3--3-3-3-------3------------------|
|------------------------0-----0---3--3-3-3-------3-------0----------|
|---------0-----0------0-----0-----0--0-0-0-------0--0h2h4-----------|
|-------0-----0--------------------2--2-2-2-------2------------------|
|--0h3------2-----0h3------2-----0-0--0-0-0-----0-0------------------|

|--------------------------------------------------------------------|
|----------------------------------3--3-3-3-------3------------------|
|------------------------0-----0---3--3-3-3-------3-------0----------|
|---------0-----0------0-----0-----0--0-0-0-------0--0h2h4-----------|
|-------0-----0--------------------2--2-2-2-------2------------------|
|--0h3------2-----0h3------2-----0-0--0-0-0-----0-0------------------|
|--------------------------------------------------------------------|

|----------------------------------3--3-3-3-------3------------------|
|------------------------0-----0---3--3-3-3-------3-------0----------|
|---------0-----0------0-----0-----0--0-0-0-------0--0h2h4-----------|
|-------0-----0--------------------2--2-2-2-------2------------------|
|--0h3------2-----0h3------2-----0-0--0-0-0-----0-0------------------|
|--------------------------------------------------------------------|

Verse 3

Hill side slippin in the storm
|----------------------------------3--3-3-3-------3--3-3-3---|
|------------------------0-----0---3--3-3-3-------3--3-3-3---|
|---------0-----0------0-----0-----0--0-0-0-------0--0-0-0---|
|-------0-----0--------------------2--2-2-2-------2--2-2-2---|
|--0h3------2-----0h3------2-----0-0--0-0-0-----0-0--0-0-0---|
|------------------------------------------------------------|


Long line slippers on the cold linoleum
|----------------------------------3--3-3-3-------3--3-3-3---|
|------------------------0-----0---3--3-3-3-------3--3-3-3---|
|---------0-----0------0-----0-----0--0-0-0-------0--0-0-0---|
|-------0-----0--------------------2--2-2-2-------2--2-2-2---|
|--0h3------2-----0h3------2-----0-0--0-0-0-----0-0--0-0-0---|
|------------------------------------------------------------|


Whatll I do with you she cried into a wet, wet rag

|---0--0-0-0------0-0----0-0----0---0-0-0-----3---3-3-3-----|
|---0--0-0-0------1-1----1-1----1---1-1-1-----2---2-2-2-----|
|---0--0-0-0------0-0----0-0----2---2-2-2-----3---3-3-3-----|
|---2--2-2-2------2-2----0-0----2---2-2-2---0-0---0-0-0-----|
|---2--2-2-2---3--3-3--2-2-2--0-0---0-0-0-------------------|
|-0-0--0-0-0------------------------------------------------|

|-----3-3------3-3----0---0-0-0----0-0----0--0--0-0-0-----0-0--------|
|-----3-3------3-3----1---1-1-1----1-1----1--0--0-0-0-----0-0------0-|
|-----0-0------0-0----0---0-0-0----0-0----2--2--2-2-2-----0-0-0h2h4--|
|-----0-0---0--0-0----2---2-2-2----0-0----2--0--0-0-0-----2-2--------|
|-----2-2------2-2--3-3---3-3-3--2-2-2--0-0--0--0-0-0-----2-2--------|
|--3--3-3------3-3---------------------------2--2-2-2---0-0-0--------|

|----------------------------------3--3-3-3-------3--3-3-3---|
|------------------------0-----0---3--3-3-3-------3--3-3-3---|
|---------0-----0------0-----0-----0--0-0-0-------0--0-0-0---|
|-------0-----0--------------------2--2-2-2-------2--2-2-2---|
|--0h3------2-----0h3------2-----0-0--0-0-0-----0-0--0-0-0---|
|------------------------------------------------------------|
            
Submit corrections

comments powered by Disqus
↑ Back to top | Blitzen Trapper Tabs for Booksmart Baby. Lyrics for acoustic guitar and electric guitar. 1 Tablatures and chords are parodies/interpretations of the original songs. You may use it for private study, scholarship, research or language learning purposes only