» » »

Blitzen Trapper, Below The Hurricane Tabs (ver.1)

Artists:  A B C D E F G H I J K L M N O P Q R S T U V W X Y Z # 

Below The Hurricane Tabs (ver.1)

Blitzen Trapper Tabs
 Rating:
4/5 (4 votes)
Below The Hurricane lessons Tabs too difficult? Try these video lessons and learn fast
                

Tuning: Standard EADGBe

**CAPO 2nd Fret

Also note, this will not sound exactly like the recording if you play
it on a 6-string, for it was recorded with a 12.



Played on a 12-string guitar, finger-picked.

PART 1

---

   Esus2
e|--0-------0-----|---0-------0-----|---0--------0-----|-----------0-----|
B|------3-------3-|-------3-------3-|-------3--------3-|-------3-------3-|
G|----2-------2---|-----2-------2---|-----2------------|---0---0---------|
D|0-------0-------|-0-------0-------|---------0h2--0---|-----------------|
A|----------------|-----------------|-3----------------|-3---2-------0---|
E|----------------|-----------------|------------------|---------3-------| x6

   F#m9                                B7
e|---2-------2-----|---2-------2-----|-----------------|-----------------|
B|-------3-------3-|-------3-------3-|---2-------2-----|---2-------2-----|
G|-----0-------0---|-----0-------0---|-------0-------0-|-------0-------0-|
D|-----------------|-----------------|-----2-------2---|-----2-------2---|
A|---------2-------|---------2-------|-0-------0-------|-0-------0-------|
E|-0---------------|-0---------------|-----------------|-----------------| x4

---

   Esus2
e|--0-------0-----|---0-------0-----|---0--------0-----|-----------0-----|
B|------3-------3-|-------3-------3-|-------3--------3-|-------3-------3-|
G|----2-------2---|-----2-------2---|-----2------------|---0---0---------|
D|0-------0-------|-0-------0-------|---------0h2--0---|-----------------|
A|----------------|-----------------|-3----------------|-3---2-------0---|
E|----------------|-----------------|------------------|---------3-------| x6

   F#m9                                B7
e|---2-------2-----|---2-------2-----|-----------------|-----------------|
B|-------3-------3-|-------3-------3-|---2-------2-----|---2-------2-----|
G|-----0-------0---|-----0-------0---|-------0-------0-|-------0-------0-|
D|-----------------|-----------------|-----2-------2---|-----2-------2---|
A|---------2-------|---------2-------|-0-------0-------|-0-------0-------|
E|-0---------------|-0---------------|-----------------|-----------------| x3

   Am6                                 D
e|-------0-------0-|-------0-------0-|-----------------|-----------------|
B|---3-------3-----|---3-------3-----|---1-------1-----|---1-------1-----|
G|-----3-------3---|-----3-------3---|-------0-------0-|-------0-------0-|
D|-----------------|-----------------|-----2-------2---|-----2-------2---|
A|-----------------|-----------------|-3-------3-------|-3-------3-------|
E|-3-------3-------|-3-------3-------|-----------------|-----------------| x2

   F#m                                 B       A         E
e|-----------------|-----------------|-----------------|---2-------2-----|
B|---0-------0-----|---0-------0-----|---2-------0-----|-------3-------3-|
G|-------0-------0-|-------0-------0-|-------0-------0-|-----2-------2---|
D|-----2-------2---|-----2-------2---|-----2-------0---|-0-------0-------|
A|-----------------|-----------------|-0---------------|-----------------|
E|-0-------0-------|-0-------0-------|---------3-------|-----------------| x1

   G       D
e|---0-------0-----|
B|-------1-------1-|
G|-----2-------0---|
D|-3---------------|
A|---------3-------|
E|-----------------| x1

---

   B                 C#/B              F/B
e|-----------------|-----------------|-----------------|-----------------|
B|---2-------2-----|---4-------4-----|---8-------8-----|---8-------8-----|
G|-------2-------2-|-------4-------4-|-------8-------8-|-------8-------8-|
D|-----2-------2---|-----4-------4---|-----8-------8---|-----8-------8---|
A|-0-------0-------|-0-------0-------|-0-------0-------|-0-------0-------|
E|-----------------|-----------------|-----------------|-----------------| x1

   Bm
e|---------------------|---------------------|
B|---10--------10------|---10--------10------|
G|---------9---------9-|---------9---------9-|
D|------10--------10---|------10--------10---|
A|-0---------0---------|-0---------0---------|
E|---------------------|---------------------| x1

   Bm/E
e|---8--------8-----------------------------------------------|
B|-------10-------10..........fade out...---------------------|
G|-----9--------9---------------------------------------------|
D|-0--------0-------------------------------------------------|
A|------------------------------------------------------------|
E|------------------------------------------------------------|


Hey babe, don't you know it's all the same
Hey babe, don't you know it's all the same
Heaven's right below the hurricane
Heaven's right below, yeah

Touching down, I see the lights
Taxi drive through rainy nights
A finger ride on window pane
That heaven's in a hurricane

Hey babe, don't you know it's all the same
Heaven's right below the hurricane
And hell's contained in every single flame
But heaven's right below, yeah

Driving up through trees so bare
I know you're here, but I don't know where
The world is wide and waiting there
Stop to rest at river's edge
Your cigarette is burning red
And if hell's in every single flame
Then heaven's in a hurricane

---

PART 2

Chord reference:

   Bm   A    E    G    D   F#m   Em  A#6  C#m9
e|-0----3----2----1----0----0----1----3----5----|
B|-0----0----3----1----1----0----3----5----0----|
G|-5----0----2----2----0----0----2----4----5----|
D|-7----0----0----3----2----2----0----0----0----|
A|-7----2---------3----3----2-------------------|
E|------3-------------------0-------------------|


Bm                  A      E       G              D
      She said "I think I'm still asleep at the wheel,

        A      F#m         Em      A#6
You can say anything you want"

Bm                  A     E
      I sense your eyes conceal

    G               D
The things that you steal

           A         F#m       Em    A#6    C#m9

---

e|-0-----------------------|-0----------------------|
B|-3-----------------------|-3----------------------|
G|-2-----------------------|-2----------------------|
D|-0-----3-2-0-----------0-|-0----------------------|
A|-------------3-------0---|-------3-2-0----------0-|
E|-----------------0-3-----|-------------3----0-3---| x3

---

Little riff before next verse:

e|-5-------3------2p0-----|
B|-0-------0----------0p1-|
G|-5-------5--------------|
D|-0-------0--------------|
A|------------------------|
E|------------------------|


Bm                  A        E
       She said "I toss and I turn,

   G            D             A           F#m           Em         A#6
In dreams I discern certain shapes coming through the trees"

Bm                  A            E
       I said "Your eyes may believe

        G             D
But the heart will deceive"

         A             F#m      Em     A#6     C#m9
Let us run while we're young free

---

e|-0-----------------------|-0----------------------|
B|-3-----------------------|-3----------------------|
G|-2-----------------------|-2----------------------|
D|-0-----3-2-0-----------0-|-0----------------------|
A|-------------3-------0---|-------3-2-0----------0-|
E|-----------------0-3-----|-------------3----0-3---| x3

---

Outro (same as intro):

   Esus2
e|---0-------0-----|---0-------0-----|---0--------0-----|-----------0-----|
B|-------3-------3-|-------3-------3-|-------3--------3-|-------3-------3-|
G|-----2-------2---|-----2-------2---|-----2------------|---0---0---------|
D|-0-------0-------|-0-------0-------|---------0h2--0---|-----------------|
A|-----------------|-----------------|-3----------------|-3---2-------0---|
E|-----------------|-----------------|------------------|---------3-------|

************************************

| /   slide up
| \   slide down
| h   hammer-on
| p   pull-off
| ~   vibrato
| +   harmonic
| x   Mute note
| b   Bend
| pb  Pre-bend
| br  Bend release
| pbr Pre-bend release
| brb Bend release bend

************************************
            
Submit corrections

comments powered by Disqus
↑ Back to top | Blitzen Trapper Tabs for Below The Hurricane. Lyrics for acoustic guitar and electric guitar. Tablatures and chords are parodies/interpretations of the original songs. You may use it for private study, scholarship, research or language learning purposes only