» » »

*Blink 182*, When You Fucked Grandpa Tabs (ver.2)

Artists:  A B C D E F G H I J K L M N O P Q R S T U V W X Y Z # 

When You Fucked Grandpa Tabs (ver.2)

*Blink 182* Tabs
Rating:
0/5 (0 votes)
When You Fucked Grandpa lessons Tabs too difficult? Try these video lessons and learn fast
                /=slide but don't pluck the note you slide to or it screws up the song!

Intro:

Uno, dos, tres, cuatro

e|--2---0---2---0-------------------------------------------------------------|
B|----3---3---3---3-3---3/5--2---2--------------------------------------------|
G|--------------------0--------2---3------------------------------------------|
D|--0---0---0---0-------------------------------------------------------------|
A|---------------------------0---0--------------------------------------------|
E|------------------3---3-----------------------------------------------------|

Verse1

When you f**ked grandpa did he tell you that he loved you?
e|--2---0---2---0-------------------------------------------------------------|
B|----3---3---3---3-3---3/5--2---2--------------------------------------------|
G|--------------------0--------2---3------------------------------------------|
D|--0---0---0---0-------------------------------------------------------------|
A|---------------------------0---0--------------------------------------------|
E|------------------3---3-----------------------------------------------------|

did he hold you till the sun did rise and did he look into your eyes
e|--2---0---2---0-------------------------------------------------------------|
B|----3---3---3---3-3---3/5--2---2--------------------------------------------|
G|--------------------0--------2---3------------------------------------------|
D|--0---0---0---0-------------------------------------------------------------|
A|---------------------------0---0--------------------------------------------|
E|------------------3---3-----------------------------------------------------|

and ask you to fellate him and stick a finger or two in his ass
e|--2---0---2---0-------------------------------------------------------------|
B|----3---3---3---3-3---3/5--2---2--------------------------------------------|
G|--------------------0--------2---3------------------------------------------|
D|--0---0---0---0-------------------------------------------------------------|
A|---------------------------0---0--------------------------------------------|
E|------------------3---3-----------------------------------------------------|


Chorus

        He seems like a            total a**hole
e|----------------------------------------------------------------------------|
B|--3---3---3---3----2---2---2---2--------------------------------------------|
G|----0---0---0---0----2---2---2---0------------------------------------------|
D|----------------------------------------------------------------------------|
A|----------------------------------------------------------------------------|
E|--3---3---3---3----0---0---0---0--------------------------------------------|

        grandpa is a                total f**king a**hole
e|----------------------------------------------------------------------------|
B|--3---3---3---3----2---2---2---2--------------------------------------------|
G|----0---0---0---0----2---2---2---0------------------------------------------|
D|----------------------------------------------------------------------------|
A|----------------------------------------------------------------------------|
E|--3---3---3---3----0---0---0---0--------------------------------------------|

        who would ever want a dirty greasy finger in his 
e|----------------------------------------------------------------------------|
B|--3---3---3---3----2---2---2---2--------------------------------------------|
G|----0---0---0---0----2---2---2---0------------------------------------------|
D|----------------------------------------------------------------------------|
A|----------------------------------------------------------------------------|
E|--3---3---3---3----0---0---0---0--------------------------------------------|

    ass?              he rubs his dick in broken glass
e|----------------------------------------------------------------------------|
B|--3---3---3---3-----2-------------------------------------------------------|
G|----0---0---0---0-----------------------------------------------------------|
D|----------------------------------------------------------------------------|
A|----------------------------------------------------------------------------|
E|--3---3---3---3-----0-------------------------------------------------------|


e|--2---0---2---0-------------------------------------------------------------|
B|----3---3---3---3-3---3/5--2---2--------------------------------------------|
G|--------------------0--------2---3------------------------------------------|
D|--0---0---0---0-------------------------------------------------------------|
A|---------------------------0---0--------------------------------------------|
E|------------------3---3-----------------------------------------------------|


e|--2---0---2---0-------------------------------------------------------------|
B|----3---3---3---3-3---3/5--2---2--------------------------------------------|
G|--------------------0--------2---3------------------------------------------|
D|--0---0---0---0-------------------------------------------------------------|
A|---------------------------0---0--------------------------------------------|
E|------------------3---3-----------------------------------------------------|


Verse2

When you f**ked grandpa did he kiss you soft and tender?
e|--2---0---2---0-------------------------------------------------------------|
B|----3---3---3---3-3---3/5--2---2--------------------------------------------|
G|--------------------0--------2---3------------------------------------------|
D|--0---0---0---0-------------------------------------------------------------|
A|---------------------------0---0--------------------------------------------|
E|------------------3---3-----------------------------------------------------|

did he tie your hands behind your head and was it on your mother's bed?
e|--2---0---2---0-------------------------------------------------------------|
B|----3---3---3---3-3---3/5--2---2--------------------------------------------|
G|--------------------0--------2---3------------------------------------------|
D|--0---0---0---0-------------------------------------------------------------|
A|---------------------------0---0--------------------------------------------|
E|------------------3---3-----------------------------------------------------|


And
(play chorus on the background)
this is f**king stupid man!
I can't believe you'd have sex with your own grandfather!
I mean, you guys are related!
What's he gonna do, take out his false teeth and just leave them on the side of your bed?
Man, he'd like to f**k you on the bottom, and grandma would come in and watch and masturbate and cum all over the place and, this is stupid!
I hate you all!
I'm not even going to have sex with my mom tonight! 
Man, this is stupid!
I hate you!
            

comments powered by Disqus
↑ Back to top | *Blink 182* Tabs for When You Fucked Grandpa. Lyrics for acoustic guitar and electric guitar. Tablatures and chords are parodies/interpretations of the original songs. You may use it for private study, scholarship, research or language learning purposes only