» » »

*Blink 182*, Wasting Time Tabs (ver.3)

Artists:  A B C D E F G H I J K L M N O P Q R S T U V W X Y Z # 

Wasting Time Tabs (ver.3)

*Blink 182* Tabs
 Rating:
4/5 (4 votes)
Wasting Time lessons Tabs too difficult? Try these video lessons and learn fast
                E-----------------------------------------------------------------|
B-----------------------------------------------------------------|
G-----------------------------------------------------------------|
D---------10-8-7------7---8-10-7------7----7-8-7------------------|
A---8--8---------8--8---8----------------------------10-----10--0-|
E---------------------------------10----10-------8-8----8-8-------|

Verses 1 & 2:  I love the lyrics-- like always, Blink manages to act like 
us teenagers [rock]

 (Wastin time thinkin bout a girl...) 
E-----------------------------
B-----------------------------
G----------3------7------5----
D---3------3------7------5---- (4X)
A---3------1------5------3----
E---1-------------------------

Chorus:
 (...and maybe id impress her...)
E-----------------------------
B-----------------------------
G---3-------------7------5----
D---3------3------7------5---- (3x then...)
A---1------3------5------3----
E----------1------------------

                     (ya gotta do the dinky thing with all the 6's here if you 
                     really care...same as the A#/Bb used above but lets you do 
                        all the notes by holding the power chord  ;)
 (..sitting at home...)
E----------------------------------------------6-----6----6--6----6-----|
B-------------------------------------------------6-----6------6-----6--|
G---3-------------7-7-7------5-5-5--------------------------------------|
D---3------3------7-7-7------5-5-5------8-8-8---------------------------|
A---1------3------5-5-5------3-3-3------8-8-8---------------------------|
E----------1----------------------------6-6-6---------------------------|
            
Submit corrections

comments powered by Disqus
↑ Back to top | *Blink 182* Tabs for Wasting Time. Lyrics for acoustic guitar and electric guitar. Tablatures and chords are parodies/interpretations of the original songs. You may use it for private study, scholarship, research or language learning purposes only